The Middle, Jimmy Eat World (tablatura)

Autor: ELKERP | 30903 visualizaciones

e---------------------------------------------------------------------------|
B---------------------------------------------------------------------------|
G---------------------------------------------------------------------------|
D-4-4-0-0-0-0-0-0-0-0-0-4-4-4-4-4-4-2-2-----------------------------0-0-0-0-|
A---------------------------------------4-4-4-4-4-4-4-4-4-4-4-4-4-4---------|
D---------------------------------------------------------------------------|
    
e---------------------------------------------------------|
B---------------------------------------------------------|
G---------------------------------------------------------|
D-0-0-0-------------------0-0-0-0-0-0-0-0-0-0-0-0-0-0-0-0-|
A-------4-4-4-4-4-4-4-4-4---------------------------------|
D---------------------------------------------------------|
      
e---------------------------------------------------------------------------|
B---------------------------------------------------------------------------|
G---------------------------------------------------------------------------|
D---------------------------------------------------------------------------|
A---------------------------------------------------------------------------|
D-0-0-0-0-0-0-0-0-0-0-0-0-0-0-0-0-7-7-7-7-7-7-7-7-7-7-7-7-7-7-7-7-5-5-5-5-5-|
  

e-------------------------------------------------------x-x-x-x-x-x-x-x-x-x-|
B-------------------------------------------------------x-x-x-x-x-x-x-x-x-x-|
G-------------------------------------------------------7-7-7-7-7-7-7-7-7-7-|
D-------------------------------------------------------0-0-0-0-0-0-0-0-0-0-|
A-------------------------------------------------------x-x-x-x-x-x-x-x-x-x-|
D-5-5-5-5-5-5-5-5-5-5-5-0-0-0-0-0-0-0-0-0-0-0-0-0-0-0-0-x-x-x-x-x-x-x-x-x-x-|
   
e-x-x-x-x-x-x-x-x-x-x-x-x-x-x-x-x-x-x-x-x-x-x-x-x-x-x-x-x-x-x-x-x-x-x-x-x-x-|
B-x-x-x-x-x-x-x-x-x-x-x-x-x-x-x-x-x-x-x-x-x-x-x-x-x-x-x-x-x-x-x-x-x-x-x-x-x-|
G-7-7-6-6-6-6-7-7-7-7-7-7-7-7-7-7-7-7-7-7-7-7-4-4-2-2-2-2-2-2-2-2-2-2-6-6-6-|
D-0-0-0-0-0-0-0-0-0-0-0-0-0-0-0-0-0-0-0-0-0-0-0-0-0-0-0-0-0-0-0-0-0-0-0-0-0-|
A-x-x-x-x-x-x-x-x-x-x-x-x-x-x-x-x-x-x-x-x-x-x-x-x-x-x-x-x-x-x-x-x-x-x-x-x-x-|
D-x-x-x-x-x-x-x-x-x-x-x-x-x-x-x-x-x-x-x-x-x-x-x-x-x-x-x-x-x-x-x-x-x-x-x-x-x-|
  
e-x-x-x-x-x-x-x-x-x-x-x-x-x-x-x-x-x-|
B-x-x-x-x-x-x-x-x-x-x-x-x-x-x-x-x-x-|
G-6-7-7-7-7-7-7-7-7-7-7-7-7-7-7-7-7-|
D-0-0-0-0-0-0-0-0-0-0-0-0-0-0-0-0-0-|
A-x-x-x-x-x-x-x-x-x-x-x-x-x-x-x-x-x-|
D-x-x-x-x-x-x-x-x-x-x-x-x-x-x-x-x-x-|


           A                G             D
e-2--------------/---0-----------/---3-----------/---2--|
B-3--------------/---2-----------/---3-----------/---3--|
G-2--------------/---2-----------/---0-----------/---2--|
D-0--------------/---2-----------/---0-----------/---0--|
A-0--------------/-0-0-----------/---5-----------/---0--|
D-0--------------/---0-----------/-5-5-----------/-0-0--|
  -D-DU-UDUDUDU-----------------------------------------|      
D-DU-UDUDUDU    D-DU-UDUDUDU    D-DU-DU-UDU



e---------------------------------------------------------------------------|
B---------------------------------------------------------------------------|
G---------------------------------------------------------------------------|
D---------------------------------------------------------------------------|
A---------------------------------------------------------------------------|
D-0-0-0-0-0-0-0-0-0-0-0-0-0-0-0-0-7-7-7-7-7-7-7-7-7-7-7-7-7-7-7-7-5-5-5-5-5-|
 
e-------------------------------------------------------x-x-x-x-x-x-x-x-x-x-|
B-------------------------------------------------------x-x-x-x-x-x-x-x-x-x-|
G-------------------------------------------------------7-7-7-7-7-7-7-7-7-7-|
D-------------------------------------------------------0-0-0-0-0-0-0-0-0-0-|
A-------------------------------------------------------x-x-x-x-x-x-x-x-x-x-|
D-5-5-5-5-5-5-5-5-5-5-5-0-0-0-0-0-0-0-0-0-0-0-0-0-0-0-0-x-x-x-x-x-x-x-x-x-x-|
   

e-x-x-x-x-x-x-x-x-x-x-x-x-x-x-x-x-x-x-x-x-x-x-x-x-x-x-x-x-x-x-x-x-x-x-x-x-x-|
B-x-x-x-x-x-x-x-x-x-x-x-x-x-x-x-x-x-x-x-x-x-x-x-x-x-x-x-x-x-x-x-x-x-x-x-x-x-|
G-7-7-6-6-6-6-7-7-7-7-7-7-7-7-7-7-7-7-7-7-7-7-4-4-2-2-2-2-2-2-2-2-2-2-2-6-6-|
D-0-0-0-0-0-0-0-0-0-0-0-0-0-0-0-0-0-0-0-0-0-0-0-0-0-0-0-0-0-0-0-0-0-0-0-0-0-|
A-x-x-x-x-x-x-x-x-x-x-x-x-x-x-x-x-x-x-x-x-x-x-x-x-x-x-x-x-x-x-x-x-x-x-x-x-x-|
D-x-x-x-x-x-x-x-x-x-x-x-x-x-x-x-x-x-x-x-x-x-x-x-x-x-x-x-x-x-x-x-x-x-x-x-x-x-|
 

e-x-x-x-x-x-x-x-x-x-x-x-x-x-x-x-x-x-x-|
B-x-x-x-x-x-x-x-x-x-x-x-x-x-x-x-x-x-x-|
G-6-6-7-7-7-7-7-7-7-7-7-7-7-7-7-7-7-7-|
D-0-0-0-0-0-0-0-0-0-0-0-0-0-0-0-0-0-0-|
A-x-x-x-x-x-x-x-x-x-x-x-x-x-x-x-x-x-x-|
D-x-x-x-x-x-x-x-x-x-x-x-x-x-x-x-x-x-x-|


e----7-----7-----7--7--7-----|
B--10-10-10-10-10-10-10-10---|
G-7-----7-----7--------------|  8x
D----------------------------|
A----------------------------|
D----------------------------|


e-x----------------/-x---------------/    e-x---------------/-x--|
B-x----------------/-x---------------/    B-x---------------/-x--|
G-x----------------/-x---------------/ 2X G-x---------------/-x--|
D-7----------------/-0---------------/    D-5---------------/-0--|
A-7----------------/-0---------------/    A-5---------------/-0--|
D-7----------------/-0---------------/    D-5---------------/-0--|
  D-DUD-DUDU-UDUDU   D-DUD-DUDU-UDUDU----------------------------|       
D-DUD-DUD-DUD-DU -

e-x---------/-0--------------------|
B-x---------/-2--------------------|
G-x---------/-2--------------------|
D-7---------/-0--------------------|
A-7---------/-x--------------------|
D-7---------/-x--------------------|
 D---U---D---U--------|DD



e------------------------------------------------------/
B-2-3-2-0----------------------------------------------/
G----------2-4-2-0-------------------------------------/
D-------------------4-5-4-0-----------4-0-0------4-----/
A----------------------------2-4-2-0----------4-----4--/
D------------------------------------------------------/

e-----------------------    e-----------------------------------------------|
B-----------------------    B-----------------------------------------------|
G----------------------- 2X G---------------------------------------7---7-9-|
D-----------------------    D-----------------7-5-4-5-4-5-7-5-4-4-0---0-----|
A-7-5-4-5-4-5--4-5-4-0--    A-0-0-2-2-4--5--5-------------------------------|
D----------------------0    D-----------------------------------------------|

e-------------------------------------------0-0-0-0-0-0-|
B----------------------15-15-14-14-12-12-10-8-7-5-3-2-0-|
G---9-11---11-12-11-12----------------------------------|
D-0------0----------------------------------------------|
A-------------------------------------------------------|
D-------------------------------------------------------|

e-2-------------/-0---0---0-0--/-3------------/---2------|
B-3-------------/-0---2---3-2--/-3------------/---3------|
G-2-------------/-2---2---2-2--/-0------------/---2------|
D-0-------------/-2---2---2-2--/-0------------/---0------|  
A-0-------------/-0---0---0-0--/-5------------/-0-x------|  
D-0-------------/-0---0---0-0--/-5------------/-0-x------|
  -D-DU-UDU-UDU   -D-DU-UDU-UDU  -D-DU-UDU-UDU  D-D-D----|U

Comentarios del colaborador: No creo ke este muy vien pero bueno.......

Calificar esta versión:
Aviso: Este fichero es trabajo propio de su transcriptor y representa su interpretación personal de la canción. El material contenido en esta página es para exclusivo uso privado, por lo que se prohibe su reproducción o retransmisión, así como su uso para fines comerciales.
Más versiones de The Middle, Jimmy Eat World
The Middle
acordes
The Middle
tablatura
The Middle (ver 2)
tablatura
Descubre más canciones de Jimmy Eat World