Voodoo Child, Jimi Hendrix (tablatura)

Autor: Fender_960 | 26642 visualizaciones

e--7-----
B--9-----
G--9-----
D--9-----
A--7-----
E--------

intro

E-|----------------------------------------------------|
B-|----------------------------------------------------|
G-|-7--7h9p7h9p7---7------------7h9p7h9p7---9~~--------|
D-|-------------9---5-5-5h7p5-------------9--------2---|
A-|---------------------------7--------------------2---|
E-|------------------------------------------------0---|



E-|--------------------------------------------------------------|
B-|---------------------------------------------12----12---------|
G-|-7--7h9p7h9p7---7------------7h9p7h9p7---7---14b16----14--12~-|
D-|-------------9----5-5-5h7p5------------9----------------------|
A-|---------------------------7----------------------------------|
E-|--------------------------------------------------------------|


Em
e-|--------------------------------------------------------------------------|
B-|------------------------------------------12----12---12----12-------------|
G-|-----------0-2b3b2p0----------------------14b16(hold)14b16----12~~--------|
D-|-2-2--2--2-----------2-2-2-2-2--2-0h2p0h2--------------------------2-2-2-2|
A-|-2-2--2--2-----------2-2-2-2-2-------------------------------------2-2-2-2|
E-|-0-0--3--------------0-0-0-3-0-------------------------------------0-0-3-0|


e|--------------------------------0---3--|
B|--------------------------0---3--------|
G|--------------------0---2--------------|
D|--------------0---2--------------------|
A|--------0---2--------------------------|
E|-0---3---------------------------------|

e|------------------------------------------------------|
B|-15b17--15b17--15-12----------------------------------|
G|---------------------14-12--14b16b14-12---------------|
D|----------------------------------------14-12-12h14---|
A|------------------------------------------------------|
E|------------------------------------------------------|


E-|---------------------------------|
B-|---------------------------------|
G-|-4-4-4-4-4-4-4-4-2-2-2-2-2-2-2-2-|
D-|-0-0-0-0-0-0-0-0-0-0-0-0-0-0-0-0-|
A-|-5-5-5-5-5-5-5-5-4-4-4-4-4-4-4-4-|
E-|---------------------------------|


E-|---------------------------------|
B-|---------------------------------|
G-|-3-3-3-3-3-3-3-3-5-5-5-5-5-5-5-5-|
D-|-2-2-2-2-2-2-2-2-4-4-4-4-4-4-4-4-|
A-|-3-3-3-3-3-3-3-3-5-5-5-5-5-5-5-5-|
E-|---------------------------------|
Calificar esta versión:
Aviso: Este fichero es trabajo propio de su transcriptor y representa su interpretación personal de la canción. El material contenido en esta página es para exclusivo uso privado, por lo que se prohibe su reproducción o retransmisión, así como su uso para fines comerciales.
Más versiones de Voodoo Child, Jimi Hendrix
Voodoo Child
tablatura
Voodoo Child (ver 2)
tablatura
Descubre más canciones de Jimi Hendrix