Are You Gonna Be My Girl, Jet (tablatura) (ver 2)

Autor: Santiandres | 16494 visualizaciones

    e-----------------|
    B-----------------|
    G--5-7^-7^-5------|
    D-7----------7-5-7|
    A-----------------|
    E-----------------|

   Main
    e------------------------------------------------------|
    B------------------------------------------------------|
    G-----------------------------------5-7^-7^-5----------|
    D---------------------------------7----------7-5-7-5---|
    A-777777-10-7777777-5-777777-10-----------------------7|
    E-5555555-8-5555555-3-5555555-8-----------------------5|

  1,2,3....

    e------------|
    B------------|
    G------------|
    D------------|x3
    A-777777-10-7|
    E-5555555-8-5|

    e-------------------------------|
    B-------------------------------|
    G-------------------------------|
    D-------------------------------|
    A-7777777-5----3-5^-5^-3--------|
    E-5555555-3--5-----------5-3-5-3|

    e----------------|----------------------------------------------    B----------------|----------------------------------------------|
   
G----------------|----------------------------------------------|
   D-777-777-777-777|----------------------------------------------|x2
    A-555-555-555-555|-7777777-10101010101010-12121212121212-7777777|
    E----------------|-55555555-8888888888888-10101010101010-5555555|

    e-------------|
    B-------------|
    G-------------|
    D-9-9-9--12-12|
    A-7-7-7--10-10|
    E-------------|
  The rest is really from the main
    e------------------------------------------------------|
    B------------------------------------------------------|
    G-----------------------------------5-7^-7^-5----------|
    D---------------------------------7----------7-5-7-5---|
    A-777777-10-7777777-5-777777-10-----------------------7|
    E-5555555-8-5555555-3-5555555-8-----------------------5|

  1,2,3....

    e------------|
    B------------|
    G------------|
    D------------|x3
    A-777777-10-7|
    E-5555555-8-5|

    e-------------------------------|
    B-------------------------------|
    G-------------------------------|
    D-------------------------------|
    A-7777777-5----3-5^-5^-3--------|
    E-5555555-3--5-----------5-3-5-3|

    e----------------|----------------------------------------------|
    B----------------|----------------------------------------------|
    G----------------|----------------------------------------------|
    D-777-777-777-777|----------------------------------------------|x2
    A-555-555-555-555|-7777777-10101010101010-12121212121212-7777777|
    E----------------|-55555555-8888888888888-10101010101010-5555555|

    e-------------|
    B-------------|
    G-------------|
    D-9-9-9--12-12|
    A-7-7-7--10-10|
    E-------------|
Calificar esta versión:
Aviso: Este fichero es trabajo propio de su transcriptor y representa su interpretación personal de la canción. El material contenido en esta página es para exclusivo uso privado, por lo que se prohibe su reproducción o retransmisión, así como su uso para fines comerciales.
Más versiones de Are You Gonna Be My Girl, Jet
Are You Gonna Be My Girl
tablatura
Are You Gonna Be My Girl (ver 2)
tablatura
Descubre más canciones de Jet