Llegaste Tú, Jesse Y Joy (tablatura)

Autor: Anónimo | 40070 visualizaciones

E|---------------------------------|
B|------------13h15p13--12---------|
G|--12/17-17----------------12-----|
D|-----------------------------12~-|
A|---------------------------------|
E|---------------------------------|


Solo... esto es antes de k termine el coro
e|-------------------------13--12--------------------------------13-15--|
B|-------13-------------13--------13----------13--------------13--------|
G|--9-10----10-9---9-10-----------------9--10----10-9----9-10-----------|
D|----------------------------------------------------------------------|
A|----------------------------------------------------------------------|
E|----------------------------------------------------------------------|
Calificar esta versión:
Aviso: Este fichero es trabajo propio de su transcriptor y representa su interpretación personal de la canción. El material contenido en esta página es para exclusivo uso privado, por lo que se prohibe su reproducción o retransmisión, así como su uso para fines comerciales.
Más versiones de Llegaste Tú, Jesse Y Joy
Llegaste Tú
acordes
Llegaste Tú
tablatura
Descubre más canciones de Jesse Y Joy