Corre, Jesse Y Joy (tablatura) (ver 2)

Autor: Anónimo | 25379 visualizaciones

Hola  espero que les guste…
CAPO EN EL 4 TRASTE   LO OLVIDEN

INTRO  1

 1 PARTE
-----3--------7---5---7-
-----3--------3---3---3-
2 PARTE
------3-------5----7-----5-
------3-------3----3-----3-
3 PARTE
-------7------8---7-----3--
-------3------3---3-----3--
4PARTE
-------3------2----------3-
--------------------3------

ESTROFA

      G                D
ME MIRAS DIFERENTE
-----3---------7---5---7-
-----3---------3---3---3-
       G                   D
ME ABRAZAS Y NO SIENTO TU CALOR
-----3---------7---5---7----3--
-----3---------3---3---3----3--
    E             D         E
 ---7-----8---7------3-----3-----2---------3--
 ---3-----3---3------3----------------3-------
 G                 D
TE DIGO LO QUE SIENTO
-----3--------7---5---7-
-----3--------3---3---3-
G                            D
Me interrumpes  y terminas la oracion
-----3-------7---5---7------3
-----3-------3---3---3------3
                             D        E       D
Siempre tienes la razón
-------7------8---7-----3---3------2-------3-
-------3------3---3-----3-------------3------

___2 ESTROFA___
C   D
Tú, libreto de siempre tan predecible
C    D
Ya, ya me lo sé
       Em                          C
así que corre, corre, corre, corazón
    G                                   D
de los dos tú siempre fuiste el más veloz
     C
toma todo lo que quieras
      G
pero ¡vete ya!
    Em                    D
que mis lágrimas jamás te voy a dar
       C                            G
así que corre como siempre no mires atrás
         Em             D                GD GD EmD EmD
lo has hecho ya, y la verdad me da igual

-SE REITE EL INTRO-

G             D         G            D
Ya vivi esta escena y con mucha pena
       Em   D        EmD
te digo no,conmigo no
G           D   G                   D        Em
di lo que podía, pero a media puerta se quedo
D         EmD
mi corazón
C   D
Tu, libreto de siempre tan predecible
C      D
ya no, no te queda bien
       Em                      C
así que corre corre corre corazón
       G                                 D
de los dos tú siempre fuiste el más veloz
      C                        G
toma todo lo que quieras pero ¡vete ya!
       Em                        D
que mis lágrimas jamás te voy a dar
        C                             G
así que corre como siempre  no mires atrás
        Em        D                     GD GD EmD EmD GD CD CD
lo has hecho ya y la verdad me da igual

--Intro segundo--
---8--8--8--8--8 ------7---5---3--
--3--3--3--3--3 ------3---3---3--

--8--8--8--8--8 ------7---5---3--
--3--3--3--3--3 ------3---3---3--


--7--7--7--7--7-------5---3---5--
--3--3--3--3--3 ---- -3---3---3--

--8--8--8--8--8 ------7---5---3--
--3--3--3--3--3 ------3---3---3

--8--8--8--8--8 ------7---5---3---
--3--3--3--3--3 ------3---3---3---
C   D
Tu, el perro  de siempre los mismos trucos
C   D
ya ya me los se
     Em                     C
así que corre corre corre corazón
        G                                D
de los dos tú siempre fuiste el más veloz
       C                         G
toma todo lo que quieras pero ¡vete ya!
     Em                   D
que mis lágrimas jamás te voy a dar
        Em                     C
han sido tantas despedidas que en verdad
 G                                D
dedicarte un verso mas,esta de más
     C                            G
así que corre como siempre que no iré atrás
  Em               D
lo has hecho ya y la verdad me da igual (2)
  Em              D
lo has hecho ya pero al final me da igual

--SE REPITE EL INTRO  1--
Calificar esta versión:
Aviso: Este fichero es trabajo propio de su transcriptor y representa su interpretación personal de la canción. El material contenido en esta página es para exclusivo uso privado, por lo que se prohibe su reproducción o retransmisión, así como su uso para fines comerciales.
Más versiones de Corre, Jesse Y Joy
Corre
acordes
Corre (ver 2)
acordes
Corre
tablatura
Corre (ver 2)
tablatura
Corre
teclado
Corre (ver 2)
teclado
Descubre más canciones de Jesse Y Joy