Canon Rock, Jerry C (tablatura) (ver 3)

Autor: ozmos_roses | 33756 visualizaciones

qe onda esos aki les va una rola  facil de tocar y menos complicada de entender pa sugerencias edmundo_loko@hotmail.com
CANNON ROCK IN D de JerryC

ACORDES: D-A-Bm-F#m-G-D-G-A
e|--------------------------------------------14~-14----14h15-14------------------|
B|--19~-17~-15~-14~-12~-10~-10~-12~-14~-15-17--------17----------17-15~-17-15-14--|
G|--------------------------------------------------------------------------------|
D|--------------------------------------------------------------------------------|
A|--------------------------------------------------------------------------------|
E|--------------------------------------------------------------------------------|

e|--14-17-19-15-14h15p14----15-14-----------------------------------------------------|
B|-----------------------17-------17-15h17p15h17--------------15-14h15p14h15p14h15p14-|
G|-----------------------------------------------14-16-14-12~-------------------------|
D|------------------------------------------------------------------------------------|
A|------------------------------------------------------------------------------------|
E|------------------------------------------------------------------------------------|

e|----x-x-----x-x---x-x-----x-x---x-x-------x-x-------x-x-x-------x-x-------|
B|--5-x-x-8\7-x-x---x-x-5h7-x-x-2-x-x-2-3---x-x-------x-x-x-----5-x-x-------|
G|--7-x-x-----x-x---x-x-----x-x-4-x-x-------x-x-------x-x-x-4/6-7-x-x-------|
D|--7-x-x-----x-x-7-x-x-----x-x-4-x-x-----4-x-x-2-4-5-x-x-x-5/7-7-x-x-------|
A|--5-x-x-----x-x-7-x-x-----x-x-2-x-x-----4-x-x-2-4-5-x-x-x-----5-x-x-------|
E|----x-x-----x-x-5-x-x-----x-x---x-x-----2-x-x-0-2-3-x-x-x-------x-x-------|

e|------------x-x-----------x-x----------|
B|--8-7-5-----x-x-----------x-x----------|
G|--------7---x-x-4h6/7-6---x-x-6h7/9\7--|
D|----------5-x-x---------7-x-x----------|
A|----------5-x-x---------7-x-x----------|
E|----------3-x-x---------5-x-x----------|

e|----x-x-----x-x---x-x-----x-x---x-x-------x-x-------x-x-x-------x-x-------|
B|--5-x-x-8\7-x-x---x-x-5h7-x-x-2-x-x-2-3---x-x-------x-x-x-----5-x-x-------|
G|--7-x-x-----x-x---x-x-----x-x-4-x-x-------x-x-------x-x-x-4/6-7-x-x-------|
D|--7-x-x-----x-x-7-x-x-----x-x-4-x-x-----4-x-x-2-4-5-x-x-x-5/7-7-x-x-------|
A|--5-x-x-----x-x-7-x-x-----x-x-2-x-x-----4-x-x-2-4-5-x-x-x-----5-x-x-------|
E|----x-x-----x-x-5-x-x-----x-x---x-x-----2-x-x-0-2-3-x-x-x-------x-x-------|

e|--8---------x-x-----------x-x------|
B|----7-5-----x-x-----------x-x------|
G|--------7---x-x-4h6/7-6---x-x-6b~--|
D|----------5-x-x---------7-x-x------|
A|----------5-x-x---------7-x-x------|
E|----------3-x-x---------5-x-x------|


e|--------------------------------------------------------------------------------|
B|--17b-17~\-15~-15b-14~--------------------------15------------------14b-15-17---|
G|----------------------14~----14/16-16~-14-12-14----11~-16~-14-12-11-------------|
D|--------------------------12----------------------------------------------------|
A|--------------------------------------------------------------------------------|
E|--------------------------------------------------------------------------------|

e|------15-14-----------------14-17---19-17-15-19-17-15-14-17-19-17-15-17/19-19b--|
B|--17b-------17~\-15~-15b-14-----------------------------------------------------|
G|--------------------------------------------------------------------------------|
D|--------------------------------------------------------------------------------|
A|--------------------------------------------------------------------------------|
E|--------------------------------------------------------------------------------|

e|----------------------------------------------------------------------------|
B|------------------------8-10b~---8-7---8-7----------------------------------|
G|--7-6-7--------6--7-6-7--------------9-----9-7-------------7-6b+------------|
D|----------7~-9---------------------------------9-7~--9-7-5-------7----------|
A|--------9----------------------------------------------------------7-5-4----|
E|-------------------------------------------------------------------------5--|

e|---------------------7-9-14----------------------------10-14-15-14-12------------|
B|-------------------7--------14-12----10b--8-7---8-7-10----------------15-14-12---|
G|--7-6-7--------6-7----------------11----------9----------------------------------|
D|----------7~-9-------------------------------------------------------------------|
A|--------9------------------------------------------------------------------------|
E|---------------------------------------------------------------------------------|

e|---------------------------------------9h12p9--------------------9h12h17p12p9----|
B|--------14-12-----------------------10--------10--------------10-----------------|
G|--14-12-------14-12-11-9----------9--------------9----------9--------------------|
D|-------------------------------11------------------11----11----------------------|
A|-------------------------12-12------------------------12-------------------------|
E|---------------------------------------------------------------------------------|

e|--------------|
B|--10----------|
G|-----9--------|
D|-------11-----|
A|----------12--|
E|--------------|

e|--17-14-15-17-14-15-17----------------14-15-14-------14-----------------------|
B|-----------------------------14-15-17----------15-17--------------------------|
G|-----------------------14-16----------------------------------14-16-14----14--|
D|--------------------------------------------------------16-17----------17-----|
A|------------------------------------------------------------------------------|
E|------------------------------------------------------------------------------|

e|------------------------------------------------------------------------------|
B|--15-14-15--------------------------------------------------------14-15-------|
G|--------------16-14-----------------------------14-16----16-14-16-------------|
D|-----------17-------17--16-14-16-14----14-16-17-------17----------------------|
A|------------------------------------17----------------------------------------|
E|------------------------------------------------------------------------------|

e|-----------------14-15-17-14-------14--------------------------------------------|
B|--------14-15-17-------------15-17----17-15-17-14-15-17-17b+-15-14-15----14-15---|
G|--14-16---------------------------------------------------------------16---------|
D|---------------------------------------------------------------------------------|
A|---------------------------------------------------------------------------------|
E|---------------------------------------------------------------------------------|

e|---------------------------------------------------------------------------------|
B|-----------------------15-14-15----15-14----------------------------14-15--------|
G|--------14-16-14----14----------16-------16-14----14----------14-16-------16-----|
D|--16-17----------17----------------------------17----17-16-17--------------------|
A|---------------------------------------------------------------------------------|
E|---------------------------------------------------------------------------------|

e|----------------------------------------------------------x-x-----x-x---x-x--|
B|--15-14-15--14----14-15-17-15-14----14-15-15~\--8-7-------x-x-5h7-x-x-2-x-x--|
G|---------------16----------------16-----------------9-7---x-x-----x-x-4-x-x--|
D|--------------------------------------------------------7-x-x-----x-x-4-x-x--|
A|--------------------------------------------------------7-x-x-----x-x-2-x-x--|
E|--------------------------------------------------------5-x-x-----x-x---x-x--|

e|--------x-x-------x-x-x-------x-x-----------x-x-----------|
B|--2-3---x-x-------x-x-x-----5-x-x-8-7-5-----x-x-----------|
G|--------x-x-------x-x-x-4/6-7-x-x-------7---x-x?4h6/7-6---|
D|------4-x-x-2-4-5-x-x-x-5/7-7-x-x---------5-x-x-----------|
A|------4-x-x-2-4-5-x-x-x-----5-x-x---------5-x-x-----------|
E|------2-x-x-0-2-3-x-x-x-------x-x---------3-x-x-----------|





e|-----------------------------------------------------------------19~----------------|
B|-----------------------------14-15-17-17b-17+\-15~-15b-14---------------------15----|
G|-----------14-16-18-14-16-18------------------------------14~--------14-12-14----11~|
D|--14-16-17----------------------------------------------------12--------------------|
A|------------------------------------------------------------------------------------|
E|------------------------------------------------------------------------------------|

e|-----------------------------------------------14-15-17-15-14--------------------|
B|-----------12-12-12-14-14-14-15-15-15-14-15-17----------------17-------14-15-17--|
G|--12-12-12-------------------------------------------------------14-16-----------|
D|---------------------------------------------------------------------------------|
A|---------------------------------------------------------------------------------|
E|---------------------------------------------------------------------------------|

e|---17----------------------14-17~--19-17-15-19-17-21-21b-19p15---------15-19p15-----|
B|17b--17~-15-14-15~-15b-14~------------------------------------15----15---------15---|
G|-----------------------------------------------------------------16--------------16-|
D|------------------------------------------------------------------------------------|
A|------------------------------------------------------------------------------------|
E|------------------------------------------------------------------------------------|

e|-----15-21p17----------17--------|
B|--15----------17----17-----------|
G|-----------------18-------9~\----|
D|---------------------------------|
A|---------------------------------|
E|---------------------------------|

e|---------------------------------------------------------------------------------|
B|-------------------------------3p0-2p0-3p0-7-10-------7-10-12p0-10p0-8-12-10-----|
G|--7---6---7-------4-------4-6-------------------6-7-9----------------------------|
D|----0---0---4-5-7---7-5-7--------------------------------------------------------|
A|---------------------------------------------------------------------------------|
E|---------------------------------------------------------------------------------|

e|-----------10?10p7-------7-10p7-------7-12p9---------9---------|
B|--------10---------8---8--------8---8--------10---10-----------|
G|-----11--------------7------------7-------------9------9~-7~---|
D|--12-----------------------------------------------------------|
A|---------------------------------------------------------------|
E|---------------------------------------------------------------|

e|-----------------------------------------------------------------------|
B|----------------------------3p0-2p0-3p0-7p0-10b-12p0-10p0-8p0-12-10----|
G|--7---6---7-----4-------4-6--------------------------------------------|
D|----0---0---4-7---7-5-7------------------------------------------------|
A|-----------------------------------------------------------------------|
E|-----------------------------------------------------------------------|

e|--------10-14/17-14----------14-17-19p15----------15-19p15-19p15---------1519p15-19b|
B|------10-------------15----15-------------15----15---------------15----15-----------|
G|---11-------------------14-------------------16---------------------16--------------|
D|12----------------------------------------------------------------------------------|
A|------------------------------------------------------------------------------------|
E|------------------------------------------------------------------------------------|

e|17-14-15-17-14-15-17----------------14-15-14-------14-------------------------------|
B|---------------------------14-15-17----------15-17-----------------------15-14-15---|
G|---------------------14-16--------------------------------14-16-14---14-----------16|
D|-----------------------------------------------------16-17--------17---------------|
A|------------------------------------------------------------------------------------|
E|------------------------------------------------------------------------------------|





e|----------------------------------------------------------------------------14-15-17|
B|15-14----------------------------14-15----15-14-15--14----14-------14-15-17---------|
G|------16-14----14----------14-16-------16--------------16----14-16------------------|
D|------------17----17-16-17----------------------------------------------------------|
A|------------------------------------------------------------------------------------|
E|------------------------------------------------------------------------------------|

e|14-------14-------------------------------------------------------------------------|
B|---15-17----17-15-17-14-15-17-17b--15-14-15---14-15----------------------15-14-15---|
G|--------------------------------------------16-----------14-16-14----14----------16~|
D|----------------------------------------------------16-17---------17----------------|
A|------------------------------------------------------------------------------------|
E|------------------------------------------------------------------------------------|



e|------------------------------------------------------------------------------------|
B|15-14----------------------------14-15-----15-14-15~-14---14-15-17-15-17---14-15-15~|
G|------16~-14----14---------14-16-------16~-------------16---------------16----------|
D|-------------17---17-16-17----------------------------------------------------------|
A|------------------------------------------------------------------------------------|
E|------------------------------------------------------------------------------------|

e|------------------------------------------------------------|
B|---------------------7-8-7h8p7------------------------------|
G|--/7~-7~-9~-7~-5~-4~-----------9-7-6---6-7~-/7-6~-4~-5-6~---|
D|-------------------------------------9----------------------|
A|------------------------------------------------------------|
E|------------------------------------------------------------|

e|------------------------------------------------------------|
B|--------------7-8/10-8-7---------------7-8/10-12-10-14-10---|
G|--7---6---7--------------9---7---6---7----------------------|
D|----0---0---0--------------0---0---0------------------------|
A|------------------------------------------------------------|
E|------------------------------------------------------------|

e|------------------------------------------------------------------------------------|
B|12-12-10-12-8-12-7-10-8-7-----10-10-8-10-7-10---------------------------------5-7-8-|
G|--------------------------9-7-----------------9-7-6-4------------4-6-7-4-6-7--------|
D|------------------------------------------------------7-5--4-5-7--------------------|
A|------------------------------------------------------------------------------------|
E|------------------------------------------------------------------------------------|

e|--------5-7-9-10-7-9-10-12-9-10-12--|
B|--5-7-8-----------------------------|
G|------------------------------------|
D|------------------------------------|
A|------------------------------------|
E|------------------------------------|

e|14p10--------10-14p10-14p10----------10-14p10-12p9---------9-12p9-14p9------12-9----|
B|-----10---10----------------10----10---------------10---10-------------10-------10--|
G|--------11----------------------11---------------------9-------------------9-------9|
D|------------------------------------------------------------------------------------|
A|------------------------------------------------------------------------------------|
E|------------------------------------------------------------------------------------|

e|-10-7-------7-10p7-10p7-------7-10p7---9-5------5-9p5-5-2-----5p2-----7-3-------3---|
B|------7---7-------------7---7-------------7---7-----------2-------2-------3---3-----|
G|--------7-----------------7-----------------6---------------2-------2-------4-------|
D|------------------------------------------------------------------------------------|
A|------------------------------------------------------------------------------------|
E|------------------------------------------------------------------------------------|



e|--7p3-10p7-------7-10p7-14p10-------14p10-------15p10-------17p14--------|
B|-----------8---8--------------10----------10----------10----------15-----|
G|-------------7-------------------11----------11----------11----------14--|
D|-------------------------------------------------------------------------|
A|-------------------------------------------------------------------------|
E|-------------------------------------------------------------------------|

e|19p15--------15-19h15-19h15-------15-19h15--17p12-------12--------------------------|
B|-----15---15---------------15---15---------------14-------14------------------------|
G|--------16--------------------16-------------------14-------14---18-14--------------|
D|---------------------------------------------------------------14------14-----------|
A|---------------------------------------------------------------------------16-12----|
E|------------------------------------------------------------------------------------|

e|--17~-13-15-17~-13-15-17~----------------13-15-13~-------13~------------------------|
B|--------------------------------14-15-17-----------15-17----------------------------|
G|--------------------------14-15------------------------------------14-15-14----14---|
D|-------------------------------------------------------------15-17----------17------|
A|------------------------------------------------------------------------------------|
E|------------------------------------------------------------------------------------|

e|-----------------------------------------------------------------------------|
B|--15-14-15-----15-14-----------------------------14-15-----14-15-14~-14------|
G|-----------15~-------15~-14----14----------14-15-------15~--------------15---|
D|----------------------------17----17-15-17-----------------------------------|
A|-----------------------------------------------------------------------------|
E|-----------------------------------------------------------------------------|

e|-----------------13-15-17-13~-------13~---------------------------------------------|
B|--------14-15-17--------------15-17-----17-15-17~--14-15-17-17b-15-14-15~----14-15~-|
G|--14-15-------------------------------------------------------------------15--------|
D|------------------------------------------------------------------------------------|
A|------------------------------------------------------------------------------------|
E|------------------------------------------------------------------------------------|

e|------------------------------------------------------------------------------------|
B|--------------------15-14-15----15-14-----------------------------14-15----14-15-14~|
G|-----14-15-14----14----------15~------15~--14----14----------14-15------15~---------|
D|15-17---------17------------------------------17----17-15-17------------------------|
A|------------------------------------------------------------------------------------|
E|-------------------------------------------------------------------------------------

e|------------------------------------14-15-17\---17----------------14-15-14~---|
B|--14-----------------------14-15-17----------------------14-15-17-------------|
G|-----15~----------12-14-16-------------------------14-16----------------------|
D|---------12-14-16-------------------------------------------------------------|
A|------------------------------------------------------------------------------|
E|------------------------------------------------------------------------------|

e|-14-15-17-19-17-15-17-19-21-21b-21-19-17~14h17h19p17p14h17-14------------------------
B|-------------------------------------------------------------17h19p17h19p17p15h17p15|
G|-------------------------------------------------------------------------------------
D|-------------------------------------------------------------------------------------
A|-------------------------------------------------------------------------------------
E|-------------------------------------------------------------------------------------

e|------------------------------------------------------------------------|
B|------------------------------------------------------------------------|
G|--16h19p16p14h16p14-----------------------------------------------------|
D|--------------------16h19p16p14h16h19p16p14h16p14-----------------------|
A|--------------------------------------------------19p16p14h16p14-12~----|
E|------------------------------------------------------------------------|





e|--17~-14-15-17--14-15------18-18-18-18-18-18-18-18-19b---19~-17------------|
B|---------------------------------------------------------------------------|
G|---------------------------------------------------------------------------|
D|---------------------------------------------------------------------------|
A|---------------------------------------------------------------------------|
E|---------------------------------------------------------------------------|
4min:30sec
e|------17-17/19-17-15-14~-14-14h15-14---------------------------------------|
B|--15\--------------------------------17-15-14-12-14-15~--15-14-12-13~------|
G|---------------------------------------------------------------------------|
D|---------------------------------------------------------------------------|
A|----------------------------------------------------------------------12~--|
E|---------------------------------------------------------------------------|

e|------17-17/19-17-15-14-15/17-17-19-21~-21-19~-21-21b-17~-19-17-17-15-15-14\12-12--|
B|--15\------------------------------------------------------------------------------|
G|-----------------------------------------------------------------------------------|
D|-----------------------------------------------------------------------------------|
A|-----------------------------------------------------------------------------------|
E|-----------------------------------------------------------------------------------|

e|------------------------------------------------------------------------------|
B|--------10-10h12-10h12p10--------7-7h8-7h8p7----------------------------------|
G|--14-7~-------------------12-11~--------------9-7-6-4-6-7~--7-6-4-5-6~/15-----|
D|------------------------------------------------------------------------------|
A|------------------------------------------------------------------------------|
E|------------------------------------------------------------------------------|

e|-----17/19-17-15-14~-14-14h15-14h15p14-12--------------------------------10h12-10~---
B|--15~-------------------------------------15-14-12-14-15~-15-14-12-13-14-------------
G|-------------------------------------------------------------------------------------
D|-------------------------------------------------------------------------------------
A|-------------------------------------------------------------------------------------
E|-------------------------------------------------------------------------------------

JerrC is a Guitar God

| /  slide up
| \  slide down
| h  hammer-on
| p  pull-off
| ~  vibrato
| +  harmonic
| x  Mute note
Calificar esta versión:
Aviso: Este fichero es trabajo propio de su transcriptor y representa su interpretación personal de la canción. El material contenido en esta página es para exclusivo uso privado, por lo que se prohibe su reproducción o retransmisión, así como su uso para fines comerciales.
Más versiones de Canon Rock, Jerry C
Canon Rock
tablatura
Canon Rock (ver 2)
tablatura
Canon Rock (ver 3)
tablatura
Descubre más canciones de Jerry C