Depende, Jarabe De Palo (tablatura)

Autor: Anónimo | 17160 visualizaciones



C=Do
|---------------------------------------------------------------------------------|
|---1------1------1------1------1------1------1------1------1------1------1-------|
|--0-0-0--0-0-0--0-0-0--0-0-0--0-0-0--0-0-0--0-0-0--0-0-0--0-0-0--0-0-0--0-0-0----|     
|-2---2--2---2--2---2--2---2--2---2--2---2--2---2--2---2--2---2--2---2--2---2--2--|
|3------3------3------3------3------3------3------3------3------3------3------3---|
|---------------------------------------------------------------------------------|

Que el blanco sea blanco, y que el negro sea negro, que uno y uno sean dos, porque

 C=Do            Am=Lam
|---------------------------------|
|---1------1--------1------1------|
|--0-0-0--0-0-0----2-2-2--2-2-2---|
|-2---2--2---2----2---2--2---2----|
|3------3--------0----------------|
|---------------------------------|
 exactos son los numeros, Depende.

-Se repiten los punteos pero cambia la letra.

Coro:

F               C           Am                      E
Depende, de que depende, de segun como se mire todo depende.
F               Am          G                       Dm   C  B  Am C
Depende, de que depende, de segun como se mire todo depende-ee-ee-ee.

C
Que bonito es el amor mas que nunca en primavera, que mañana salga el sol,
                  Am
de que estamos en agosto, Depende.

-Se repiten los acordes con los respectivos cambios de letra.

-Notas:
C=Do: 0 3 2 0 1 0
Am=Lam: x 0 2 2 1 0 
F=Fa: 1 3 3 2 1 1
E=Mi: 0 2 2 1 0 0
G=Sol: 3 2 0 0 0 3 
Dm=Rem: x 0 0 2 3 1
B=Si: x 2 4 4 4 2

Fuente original: LaCuerda
Colaborador original: Sebastián Cea [sace@netopen.cl]





Calificar esta versión:
Aviso: Este fichero es trabajo propio de su transcriptor y representa su interpretación personal de la canción. El material contenido en esta página es para exclusivo uso privado, por lo que se prohibe su reproducción o retransmisión, así como su uso para fines comerciales.
Más versiones de Depende, Jarabe De Palo
Depende
acordes
Depende (ver 2)
acordes
Depende
tablatura
Depende (ver 2)
tablatura
Depende (ver 3)
tablatura
Descubre más canciones de Jarabe De Palo