Déjame Vivir, Jarabe De Palo (acordes) (ver 2)

Autor: Anónimo | 43606 visualizaciones

aamcdmfgmi


ACORDES
   F  Am  G  Dm  X  C
1|-0---0--0--5---0--0-|
2|-1---1--3--6---3--1-|
3|-2---2--4--7---1--0-|
4|-3---2--5--7---0--2-|
5|-3---0--5---------3-|
6|--------------------|

Intro:

1|-------0-------0-------------------|
2|-----------------------1-------3---|
3|-----2-------0-------2-------1-----|
4|---3-------2-------2-------0-------|-X4
5|-3-------3-------0-----------------|
6|-------------------------0---------|

Déjame vivir
Libre
Como las palomas
Que anidan en mi ventana
Mi compañía
Cada vez que tú te vas.

Cada vez que tú te vas.
1|-0---------0---------0---------0-----------0-|
2|-1-------1-1-------3-1---------1---------3---|
3|-2-----0---2-----1---2---0-----2-------1-----|
4|-3---2-----2---0-----3-----3-2-2-----0-------|
5|-3-3-------0---------3-3-------0---0---------|
6|-------------0-------------------0-----------|

F         C
Déjame vivir
 Am
Libre
       X
Libre como el aire
F                 C
Me enseñaste a volar
     Am
Y ahora
       X
Me cortas las alas.

Dm                  F
Y volver a ser yo mismo
G                      Dm
Y que tú vuelvas a ser tú
F   Am
Libre
       X
Libre como el aire

1|-------0-------0-------------------|
2|-----------------------1-------3---|
3|-----2-------0-------2-------1-----|
4|---3-------2-------2-------0-------|-X2
5|-3-------3-------0-----------------|
6|-------------------------0---------|

1|-0---------0---------0---------0-----------0-|
2|-1-------1-1-------3-1---------1---------3---|
3|-2-----0---2-----1---2---0-----2-------1-----|
4|-3---2-----2---0-----3-----3-2-2-----0-------|
5|-3-3-------0---------3-3-------0---0---------|
6|-------------0-------------------0-----------|

Déjame vivir
Libre
Pero a mi manera
Y volver a respirar
De ese aire
Que me vuelve a la

 Vidaaaa            Pero A Mi manera.
1|-------0-------0-------------------|
2|-----------------------1-------3---|
3|-----2-------0-------2-------1-----|
4|---3-------2-------2-------0-------|-X2
5|-3-------3-------0-----------------|
6|-------------------------0---------|
Pero a mi manera.

Dm                   F
Y volver a ser yo mismo
G                      Dm
Y que tú vuelvas a ser tú
F   Am
Libre
        X
Pero a tu manera

Dm                   F
Y volver a ser yo mismo
G                     Dm
Y que tú vuelvas a ser tú
F   Am
Libre
       X
Libre como el aire.

Outro: F-C-Am-X

Pero a mi manera

Pero a mi manera

Dejame vivir

Pero a mi manera

Pero a mi maneraaah

Pero a mi manera





Calificar esta versión:
Aviso: Este fichero es trabajo propio de su transcriptor y representa su interpretación personal de la canción. El material contenido en esta página es para exclusivo uso privado, por lo que se prohibe su reproducción o retransmisión, así como su uso para fines comerciales.
Más versiones de Déjame Vivir, Jarabe De Palo
Déjame Vivir
acordes
Déjame Vivir (ver 2)
acordes
Descubre más canciones de Jarabe De Palo