Agua, Jarabe De Palo (tablatura) (ver 2)

Autor: Anónimo | 23542 visualizaciones



(Donde está la frontera entre la amistad verdadera
y el amor, ...si es que la hay)

Bueno, esto es una corrección de las tabs que aparecen en el A.T.A.M.E.
(Aclaro que esta tab no es mia, sino de los transcriptores que anteriormente
han mandado esta cancion, pero como tenian varios errores, pues los corregi)
Y como es una de mis canciones favoritas pues vale la pena que aparezca bien.
Aqui junto los riffs con los acordes para que asi la toquen como debe ser
La verdad no esta complicada, no pasa de la misma escala, y para que se 
escuche bien la guitarra lider, ponganle un pedal de overdrive, se oye de poca.
La simbologia viene abajo.

Acordes a utilizar:

  Dm7  Gm7  C7  F   A#  Dm ó  A
|-1----3----3---1---1---1--5---0---|
|-1----3----5---1---3---3--6---2---|
|-2----3----3---2---3---2--7---2---|
|-0----3----5---3---3---0--7---2---|
|-x----5----3---3---1---x--5---0---|
|-x----3----3---1---1---x--5---x---|

   Dm7			  Gm7               C7                 F
e||-------1-|------------|---------|-------|---------|--------|---------|
B||---1-----|------6-----|-------3-|-------|-------5-|--------|-------1-|
G||-----2---|----------7-|---3-----|-5h7p5-|---3-----|-5h7----|---2-----|
D||-0-------|-6/7----7---|-----3---|-------|-----5---|-----7~-|-----3---|
A||---------|------------|---------|-------|-3-------|--------|---------|
E||---------|------------|-3-------|-------|---------|--------|-1-------|
	      Dm7	Gm7                             C7
e|-----------|-------1-|---------|---------------------|---------|-----------------------|
B|-----------|---1-----|-------3-|---------------------|-------5-|-----------10----------|
G|-9h10h9-10-|-----2---|---3-----|/12-10-9-10-12-10/12-|---3-----|-(9)-10-12----10h12p10-|
D|-----------|-0-------|-----3---|---------------------|-----5---|-----------------------|
A|-----------|---------|---------|---------------------|-3-------|-----------------------|
E|-----------|---------|-3-------|---------------------|---------|-----------------------|
  F
e|---------|-----------||
B|-------1-|-/6-/8-/10-||
G|---2-----|-/7-/9-/10-||
D|-----3---|-----------||
A|---------|-----------||
E|-1-------|-----------||

Dm7			Gm7
Como quieres ser mi amiga
C7		F
si por ti daría la vida,
FILL 1                 
e|----------------------|
B|----------------------|
G|------75-5/7---------|
D|-5/7----------75-3-5-|
A|----------------------|
E|----------------------|

Dm7		Gm7
si confundo tu sonrisa
C7		F
por camelo si me miras.

FILL 2 *        
|---------------|
|---6/8----8/10-|
|-7--/(9)--9/10-|
|---------------|
|---------------|
|---------------|

*SLIDE AFECTA A
AMBAS CUERDAS

Dm7	Gm7   C7     F
Razón y piel, difícil mezcla,

FILL 3
|--------------------|
|------10-11-10-8----|
|--/10------------10-|
|-/(10)--------------|
|--------------------|
|--------------------|

Dm7	Gm7  C7    F
agua y sed, serio problema.

FILL 4                    /====          
e|-----------------------------------------|
B|-10-11-10h11p10-11-10----8b(10)r----8----|
G|----------------------10---------10---10-|
D|-----------------------------------------|
A|-----------------------------------------|
E|-----------------------------------------|


2° VERSO

Dm7			Gm7
Como quieres ser mi amiga
C7		F
si por ti me perdería

FILL 5
|------------|
|(6)/8-6-8-6-|
|------------|
|------------|
|------------|
|------------|

Dm7		Gm7
si confundo tus caricias

FILL 6                         
e|------------------------------|
B|-10/13-11-10-11-8-10----------|
G|(10)-----------------10h12p10-|
D|------------------------------|
A|------------------------------|
E|------------------------------|

C7		F
por camelo si me mimas.

FILL 7
|------------------------|
|-------10---------------|
|-10-12-12b(14)-10-12p10-|
|------------------------|
|------------------------|
|------------------------|

Dm7	Gm7
Pasión y ley,

FILL 8             
e|-10-8-10----------|
B|---------8h10p8---|
G|----------------10|
D|------------------|
A|------------------|
E|------------------|

C7      F
difícil mezcla,

FILL 9 /===    /--        
|-10------------------------|
|------8b(10)r(8)b(9)r------|
|----------------------10-7-|
|---------------------------|
|---------------------------|
|---------------------------|

Dm7	Gm7
agua y sed, 

FILL 10
|----------------|
|----------------|
|-----10---7-75-|
|-7/9----7-------|
|----------------|
|----------------|


ESTRIBILLO

  Do7     Fa              C7            Dm           C7           A#
  Serio problema. Cuando uno     tiene sed, pero el agua     no esta cerca
e|---------------|----------------------------------------------------------|
B|------10h11p10-|-------10h11p10---8---10-----------10h11p10-----8------6--|
G|---------------|----------------------------------------------------------|
D|---------------|----------------------------------------------------------|
A|---------------|----------------------------------------------------------|
E|---------------|----------------------------------------------------------|
          C7             Dm            C7           A#
  Cuando uno    quiere beber, pero el agua  no esta cerca.                          
                                           ESTRIBILLO ACABA
e|--------------------------------------------------------|-10h13p10-----------|
B|-------10h11p10-----8-13-10------10h11p10----86--------|---------(10h11p10)-|
G|---------------------------------------------------7----|--------------------|
D|--------------------------------------------------------|--------------------|
A|--------------------------------------------------------|--------------------|
E|--------------------------------------------------------|--------------------|


PUENTE
	F
Qué hacer,     

FILL 11           
e|------------10-8-|
B|-10-10p8h10------|
G|-10--------------|
D|-----------------|
A|-----------------|
E|-----------------|

Dm           A
      tú lo sabes

FILL 12           /--     
|--------------------------|
|-----5--------------------|
|-5/7---5---------7b(8)r---|
|---------7-5---5--------7-|
|-------------7------------|
|--------------------------|

A#	    F  
    conservar 	

FILL 13             /===
|------------------------------|
|------------------------------|
|---------10h12p10-12b(14)r-10-|
|10h11p10----------------------|
|------------------------------|
|------------------------------|

Dm         A
    la distancia

FILL 14				         
e|-10-9----13-(10)-(13)/15-(13)/15-13~--|--13.-|
B|------10------------------------------|------|
G|--------------------------------------|------|
D|--------------------------------------|------|
A|--------------------------------------|------|
E|--------------------------------------|------|

A#	     F 
     renunciar	

  FILL 15                     /----         
|-----------------------------------------|
|-10h11p10----10------------------10b(14)-|
|----------12----12b(13)r(10)-12---------|
|-----------------------------------------|
|-----------------------------------------|
|-----------------------------------------|

Dm            A
     a lo natural

FILL 16
|-8/9---------------------|
|-----8/9----8-(8)/10.----|
|---------10-----------10-|
|-------------------------|
|-------------------------|
|-------------------------|

A#	   F  
     y dejar 	

FILL 17                       
e|---8-------------------------|
B|--10-11-10h11p10-8----8-10---|
G|-10----------------10---10-7-|
D|-----------------------------|
A|-----------------------------|
E|-----------------------------|
   

Dm                A
     que el agua corra.


VERSO

Dm7			    Gm7
Como quieres vas a ser mi amiga

FILL 18                 
|-5-5-6-6-(8)/10-10-8-8-|
|-----------------------|
|-----------------------|
|-----------------------|
|-----------------------|
|-----------------------|

C7		     F
cuando esta carta recibas,

FILL 19
|--------------------|
|-10-10-10-8----8-10-|
|-10-10-10---10------|
|--------------------|
|--------------------|
|--------------------|

Dm7		Gm7
un mensaje hay entre líneas,

FILL 20
e|----------------|
B|-10/13-11-10----|
G|(10)---------12-|
D|----------------|
A|----------------|
E|----------------|

C7		
cómo quieres ser 

         F                     C7         Dm            C7        A#
...mi amiga.       Cuando     uno tiene sed,  pero el agua  no esta cerca
 |====
e|-------------|----------------------------------------------------------|
B|-------------|------10h11p10--8-6--8/10----10-11-10--8--6---------------|
G|-12pb(14)r-10/12-------------------------------------------------7------|
D|-------------|----------------------------------------------------------|
A|-------------|----------------------------------------------------------|
E|-------------|----------------------------------------------------------|

          C7                Dm           C7           A#
  Cuando uno   quiere   beber, pero el agua no esta cerca...
e|----------------------------------------------------------|-------------|
B|------10--10-11-10--8-13-10-------------------------------|-------------|
G|------10--------------------------------------------------|---FADE------|
D|----------------------------------------------------------|--------OUT--|
A|----------------------------------------------------------|-------------|
E|----------------------------------------------------------|-------------|
 

Chau...

Simbologia:

XhY:    Hammer-on de X a Y
XpY:    Pull-off de X a Y
X/Y:    Slide subiendo de X a Y
XY:    Idem pero bajando
(X):    Ghost note, nota que casi no suena
/X:     Slide desde 3 o 4 trastes antes hasta la nota indicada, rapido
X~:     Vibrato, hacer mini bends y releases en el traste indicado,rapidamente.
X.:     Indica que la nota ha de pararse muy poco despues de que se la toque.
Xb(Y)r: Bend nota X hasta que suene como Y y soltar, para mas ayuda, donde 
        aparezca un Bend, encima del TAB, aparecera lo siguiente:
        /-- si es Half bend
        /== si es Full bend
Xb(Y):  Bend como antes, pero sin soltar, manteniendolo. La representacion auxi-
        liar es:
        /-- si es Half Bend
        /== si es Full Bend
Xpb(Y)r:PreBend, haz un Bend normal ANTES de tocar la cuerda y toca cuando lo
        tengas en el punto maximo. La representacion auxiliar es:
        |-- si es Half Bend   
        |== si es Full Bend
:  bajo un grupo de notas indica que son arpegios, es decir, hay que tocar-
        las rapido, no tanto como para que suenen a la vez pero casi.

Fuente original: LaCuerda
Colaborador original: Isaías Martínez C. from México [isaiasmc@usa.com]





Calificar esta versión:
Aviso: Este fichero es trabajo propio de su transcriptor y representa su interpretación personal de la canción. El material contenido en esta página es para exclusivo uso privado, por lo que se prohibe su reproducción o retransmisión, así como su uso para fines comerciales.
Más versiones de Agua, Jarabe De Palo
Agua
acordes
Agua (ver 2)
acordes
Agua
tablatura
Agua (ver 2)
tablatura
Agua
bateria
Descubre más canciones de Jarabe De Palo