Contigo, Jaguares (tablatura) (ver 2)

Autor: Anónimo | 24622 visualizaciones



Bueno aqui esta la rola de contigo q me encata esta rola
espero q les guste.

Intro.
Escuchen la rola para q la puedan seguir es solo un rageo

Fig 1
e----------0-------------0------------0-------------0-------------0---
b----------0-------------0------------0-------------0-------------0---
g----------6-------------8------------4-------------7-------------9---
D----------6-------------8------------4-------------7-------------9---
A--------4-------------6------------2-------------5-------------7-----
E---------------------------------------------------------------------

voy caminando donde no hay señal construyendo.............. 

Cuando llega a Un camino eterno q llegue a tu puerta se toca 4 veces este acorde

Fig 2
e-----------------
b-----------------
g---------6-------
D---------6-------       4 Veces
A-------4---------
E-----------------


Tambien se hace lo mismo cuando llega a Tu risa es lo mas sagrado se toca la
fig. 2 


Cuando llega a el coro se toca esto con delay y un poco de dist.

e------------5--------7--------9----
b------------5--------7--------9----
g-----------------------------------
D-----------------------------------
A-----------------------------------
E-----------------------------------

este el solo de la cancion 

e------------------------------------------------9/12-
b---------------4-5-7-5-4-2-4-4/5-7-9-10-12-10-9------
g-6-6--8-9-8/2----------------------------------------
D-----------------------------------------------------
A-----------------------------------------------------
E-----------------------------------------------------




Este es el solo del final de la cancion

e------------7------5---------------7----5~
b-------------------------7-----5----------
g------------------------------------------
D------------------------------------------
A------------------------------------------
E------------------------------------------


Bueno aqui esta esta rola q me facina espero les guste escuchen el 
disco para q puedan sacarla como la toca Jaguares.
Bueno me despido ya saben mi mail para lo q quieran.
Esta rola se la dedico A MI AMOR ESTO ES PARA TI, TE AMO.
SOFI ERES MI LUNA Y CONTIGO EL CAMINO ES ILUMINADO HACIA
MI DESTINO TE AMO.

Fuente original: LaCuerda
Colaborador original: Raul Saul Ramirez Loce [[email protected]]





Calificar esta versión:
Aviso: Este fichero es trabajo propio de su transcriptor y representa su interpretación personal de la canción. El material contenido en esta página es para exclusivo uso privado, por lo que se prohibe su reproducción o retransmisión, así como su uso para fines comerciales.
Más versiones de Contigo, Jaguares
Contigo
acordes
Contigo (ver 2)
acordes
Contigo
tablatura
Contigo (ver 2)
tablatura
Descubre más canciones de Jaguares