Ayer Me Dijo Un Ave, Jaguares (tablatura)

Autor: Anónimo | 27482 visualizaciones



Esta es la cancion que esta en el cd 
bajo el azul de tu misterio hay riffs que me 
hicieron falta lo unico que se de esos riffs es 
que se usa un slide


En este tab guitarra 1 toca los solos y riffs y guitarra 2 toca los acordes indicados en la cancion


INTRO 

Guitarra 1
 e|------9--------9--------9-------9-------|
 B|-------9---------9-------9-------9------|
 G|---9-9------9-9------9-9-----9-9--------|
 D|--9-9------9-9------9-9-----9-9---------|
 A|----------------------------------------|
 E|-0--------0--------0-------0------------|

Despues de que guitarra 1 toca la primera parte guitarra dos toca C#m

Guitarra 1
 e|------9--------9--------9-------9---9-9-|
 B|-------9---------9-------9-------9--9--9|
 G|---9-9------9-9------9-9-----9-9----9---|
 D|--9-9------9-9------9-9-----9-9---------|
 A|----------------------------------------|
 E|-0--------0--------0-------0------------|

C#m                        E
Ayer me dijo un ave que volara
G#m                C#m
Por donde no hay ardor

Guitarra 1
 e|------9---9-9----|
 B|-------9--9--9---|
 G|---9-9----9------|
 D|--9-9------------|
 A|-----------------|
 E|-0---------------|

C#m                              E
Que lo sufrido no resucita en sueños
       G#m         C#m
Y en rezos nunca murio.

Guitarra 1
 e|------9----|
 B|-------9---|
 G|---9-9-----|
 D|--9-9------|
 A|-----------|
 E|-0---------|

A*                         B 
Que saque el aire de mis ojos
A*                             B
Que abrace al miedo con tus sueños
A*                         B
Que sea un guerrero de sangre

Guitarra 1
 e|-9-------|
 B|--9------|
 G|---------|
 D|---------|
 A|---------|
 E|---------|


A*                        B
Para que nadie te haga daño.

Guitarra 1
 e|------9--------9----9-9-----------|
 B|-------9---------9--9--9----------|
 G|---9-9------9-9-----9-------------|
 D|--9-9------9-9--------------------|
 A|----------------------------------|
 E|-0--------0-----------------------|

C#m                        E
 Ayer me dijo un ave que volara
 G#m           C#m
 Hasta desintegrarme

Guitarra 1
 e|------9---9-9----|
 B|-------9--9--9---|
 G|---9-9----9------|
 D|--9-9------------|
 A|-----------------|
 E|-0---------------|

C#m                        E
 Que la distancia no es cansancio
      G#m       C#m
 Es fuerza, eres tu.

A*                         B 
Que saque el aire de mis ojos
A*                             B
Que abrace al miedo con tus sueños
A*                         B
Que sea un guerrero de sangre

Guitarra 1
 e|-9-------|
 B|--9------|
 G|---------|
 D|---------|
 A|---------|
 E|---------|

A*                        B
Para que nadie te haga daño.

Guitarra 1
 e|---------------------9----|
 B|--------------------------|
 G|---9-9-9-9-9-9-9-9-9------|
 D|--9-9-9-9-9-9-9-9-9-------|
 A|--------------------------|
 E|-0------------------------|

 
Solo Guitarra 1

 e|-------------------------------------9----------|
 B|----------^12~------------------------9---------|
 G|-----^13~-----^13~~---------------9-9-----------|
 D|-^14~--------------^14~~~--------9-9------------|
 A|-------------------------^14~-------------------|
 E|-------------------------------0----------------|

 e|-------------------------------------9----------|
 B|---------^12~-------------------------9---------|
 G|-----^13~-----^13~~---------------9-9-----------|
 D|-^14~--------------^14~~~--------9-9------------|
 A|-------------------------^14~-------------------|
 E|-------------------------------0----------------|

A*                         B 
Que saque el aire de mis ojos
A*                             B
Que abrace al miedo con tus sueños
A*                         B
Que sea un guerrero de sangre

Guitarra 1
 e|-9-------|
 B|--9------|
 G|---------|
 D|---------|
 A|---------|
 E|---------|

A*                        B
Para que nadie te haga daño.

                     Guitarra 1
                       e|---------|
                       B|---------|
                       G|---9-----|
                       D|----9----|
                       A|---------|
                       E|-0-------|

A*                        B
Para que nadie te haga daño.

                     Guitarra 1
                       e|---------|
                       B|---------|
                       G|---9-----|
                       D|----9----|
                       A|---------|
                       E|-0-------|

A*                        B
Para que nadie te haga daño.

                     Guitarra 1
                       e|---------|
                       B|---------|
                       G|---9-----|
                       D|----9----|
                       A|---------|
                       E|-0-------|
A*                        B
Para que nadie te haga daño.

                     Guitarra 1
                       e|---------|
                       B|---------|
                       G|---9-----|
                       D|----9----|
                       A|---------|                     
                       E|-0-------|

Solo Guitarra 1

e|-------------------------------------------------------------|
B|-----------9-7--9-------------------------9-7--9-------------|
G|------9-11--------11-9---------------9-11--------11-9--------|
D|-9-11------------------11-9-7---9-11------------------11-9-7-|
A|-------------------------------------------------------------|
E|-------------------------------------------------------------|

e|-------------------------------------------------------------|
B|-----------9-7--9-------------------------9-7--9-------------|
G|------9-11--------11-9---------------9-11--------11-9--------|
D|-9-11------------------11-9-7---9-11------------------11-9-7-|
A|-------------------------------------------------------------|
E|-------------------------------------------------------------|

e|-------------------------------------------------------------|
B|-----------9-7--9-------------------------9-7--9-------------|
G|------9-11--------11-9---------------9-11--------11-9--------|
D|-9-11------------------11-9-7---9-11------------------11-9-7-|
A|-------------------------------------------------------------|
E|-------------------------------------------------------------|


A*                        B
Para que nadie te haga daño.
A*                        B
Para que nadie te haga daño.
A*                        B
Para que nadie te haga daño.

Guitarra 1

 e|------9--------9----4--|
 B|-------9---------9--5--|
 G|---9-9------9-9-----6--|
 D|--9-9------9-9------6--|
 A|--------------------4--|
 E|-0--------0---------4--|



Acordes
 C#m  E  G#m  A*   B  
|--4---0---4---5---2--|
|--5---0---4---5---4--|
|--6---1---4---6---4--|
|--6---2---6---7---4--|
|--4---2---6---7---2--|
|--4---0---4---5---2--|


Eso es todo folks espero que les aya gustado eso 300

Fuente original: LaCuerda
Colaborador original: Christopher [[email protected]]





Calificar esta versión:
Aviso: Este fichero es trabajo propio de su transcriptor y representa su interpretación personal de la canción. El material contenido en esta página es para exclusivo uso privado, por lo que se prohibe su reproducción o retransmisión, así como su uso para fines comerciales.
Más versiones de Ayer Me Dijo Un Ave, Jaguares
Ayer Me Dijo Un Ave
acordes
Ayer Me Dijo Un Ave
tablatura
Ayer Me Dijo Un Ave (ver 2)
tablatura
Ayer Me Dijo Un Ave
bajo
Descubre más canciones de Jaguares