Aqui No Es Asi, Jaguares (tablatura) (ver 2)

Autor: Anónimo | 41911 visualizaciones



Aqui no es así (Tab)  
jaguares version en vivo
tab de daniel baruc

Lenguaje:

/ slide: desliza la cuerda

~  vibrato: has vibrar la cuerda

h ligado asecendente
 

p ligado desendente



est es parte de la introduccion esta parte la toca el vampiro
	e---------------------|-------------------|---------------|
	b-------------------0-|0--0---0-----------|---------------|
	g-------0/7--7-7-7----|----7-7------------|---------------|
	d---------------------|-------------8---5-|-8~~~5---5--8--|
	


	----------------|-------------------|---------------|
	----------------|-----6-6-----------|---------------|
	--0/7--7-7-7--5-|-5-5-----7---------|----(7)--------|
	


	----------------|-------------------|---------------|
	--------------0-|-------------------|---------------|
	--0/7--7-7-7----|-5-5--7-7-5--------|---------------|
	----------------|------------8---5--|--8~~~5--5--8--|
	----------------|--------------8----|--------8------|
	


	----------------|-------------------
	----------------|-------------------
	--0/7--7-7-7--5-|------------------
	----------------|--8--7--8--7--5---|
	----------------|-------------------|
	----------------|-------------------|

Verso 1  esta parte la toca el saul
	-------------------|--------------------------
	--------------------------------------
        ------------------------------------------
	---0-3-0---0-3-0-3-|--5---5-3-5------5-3-|
	--1------3---------|----5-------5--5-----|
	-------------------|---------------------|



solo del bajo
	d---------------3-3--2--3--5-|----------3-3--2--3--4-|
	a-----------0-3--------------|------0-3--------------|
	e-------1-1------------------|--1-1------------------|

	d--5---5-3--5------5-3--|--5---5-3--5-------5-3-|
	a----5--------5--5------|----5---------5--5-----|
	e-----------------------|-----------------------|

4 veces guitarra de vampiro
	-----------------------||--18~~~~~~-15--20--15--|
	--18~~~~~~-15--18--15--||-----------------------|
	-----------------------||-----------------------|
	-----------------------||-----------------------|
	-----------------------||-----------------------|
	-----------------------||-----------------------|

	--18~~~~~~-15--20------|---------------------|
	-------------------20--|--20-20-18--18-18-16-|
	-----------------------|---------------------| 
	-----------------------|---------------------|
	-----------------------|---------------------|
	-----------------------|---------------------|

	-----------------------|
	--16-16--15--13--------|
	----------------15-14--|
	-----------------------|
	-----------------------|
	-----------------------|




Coro (4 veces)
	|----------------------|--20~~~~~~--15---18--15-|
	|--18~~~~~--15--18--15-|------------------------|
	|----------------------|------------------------|
	|----------------------|------------------------|
	|----------------------|------------------------|
	|----------------------|------------------------|

	|--20~~~~~--15-18-15---|----------------------|
	|-------------------18-|--18--15----15~~~~~~~-|
	|----------------------|---------15-----------|
	|----------------------|----------------------|
	|----------------------|----------------------|
	|----------------------|----------------------|


	|--20--17----20--17----|--17------------------|
	|---------18--------18-|-----18----18~~~~~~~--|
	|----------------------|--------17------------|
	|----------------------|----------------------|
	|----------------------|----------------------|
	|----------------------|----------------------|

	|----------------------|----------------------|
	|----------------------|----------------------|
	|--17--14----17--14----|--17--14----14---12--|
	|---------15--------15-|---------15-----------|
	|----------------------|----------------------|
	|----------------------|----------------------|

Solo:
	|-----------------------|-----------------------|-------------------------|
	|-----------------------|-----------------------|-------------------------|
	|------------------10h9p8---|---------10-10-9-10-12-|-10---------10-10-9-10-11|
	|-10h-8p-7----------------|----7-10---------------|----10-7-10--------------|
	|--------10-8-4/-10------|--8--------------------|-------------------------|
	|-----------------------|-----------------------|-------------------------|
esta parte lleva ligados no muy rapidos
	|----------------------------|----------------------|
	|----------------------------|----------------------|
	|-12~~----------12~~--14--15-|-14h-12p-15h-14p-12h-15-p14-|
	|------12----12--------------|----------------------|
	|---------13-----------------|----------------------|
	|----------------------------|----------------------|

	|------------------------|------------------------------|
	|------------------------|------------------------------|
	|-12----------10-10------|-10~~----------------14-12-10-|
	|----15-13-12-------7-10-|------10-12-13-12-10----------|
	|------------------------|------------------------------|
	|------------------------|------------------------------|

	|-------------------------|---------------------------|
	|-------------------------|----15/17---18-18-18-18-18-|
	|-------10-------------10-|-15-15/17---19-19-19-19-19-|
	|-13-12----12-------12----|---------------------------|
	|-------------13-13-------|---------------------------|
	|-------------------------|---------------------------|

        -----------------------------------------------------0-1-3-----------|
-----------------------0-1-3-----------------|
-------------------0-2-----------------------|
-------0-2-3---------------------------------|
-0-1-3---------------------------------------|
---------------------------------------------
	|-17-15-17-15-----------
	|-17-15-17-15-14~~~~~~--
	|-----------------------
	|-----------------------
	|-----------------------






-3-5-----------------------------------------|
-----3-5-6-----------------------------------|
-----------2-4-5-----------------------------|
-----------------2-3-5-----------------------|
-----------------------2-3-5-----------------|
-----------------------------3-5-------------|

-----------------------------5-7-8-----------|
-----------------------5-6-8-----------------|
-----------------4-5-7-----------------------|
-------------5-7-----------------------------|
-------5-7-8---------------------------------|
-5-7-8---------------------------------------|

-7-8-10--------------------------------------|
--------8-10---------------------------------|
-------------7-9-10--------------------------|
--------------------7-9-10-------------------|
---------------------------7-8-10------------|
----------------------------------7-8-10-----|
COMO SE DARAN CUENTA LO HIZO MAS RAPIDO Y LE AGREGO UNA ESCALA DE CSOS.
tenga cuidado al escucharla porque el vampiro le mete unos efectos raros
que hacen que la lira se escuche como un sonido mistico.
	|---------1------------|     |---------3----------|
	|-----1---------1------|     |-----3---------3----|
	|---2---2---2-----2----|     |---3---3---3-----3--|
	|-3-----------3--------|     |-5-----------5------|
	|----------------------|     |--------------------|
	|----------------------|     |--------------------|



	  variacion1		variacon 2
	|----------------------|     |-----------------------|
	|----------------------|     |-----------------------|
	|-5--------5-5---------|     |--7--------7-7---------|
	|---3-5-3-------3-5-3--|     |----3-5-3-------3-5-3--|
	|----------------------|     |-----------------------|
	|----------------------|     |-----------------------|


	|-8-------8-8-------|
	|---6-8-6-----6-8-6-|
	|-------------------|
	|-------------------|

el final termina con el intro
        e---------------------|-------------------|---------------|
	b-------------------0-|0--0---0-----------|---------------|
	g-------0/7--7-7-7----|----7-7------------|---------------|
	d---------------------|-------------8---5-|-8~~~5---5--8--|
	


	----------------|-------------------|---------------|
	----------------|-----6-6-----------|---------------|
	--0/7--7-7-7--5-|-5-5-----7---------|----(7)--------|
	


	----------------|-------------------|---------------|
	--------------0-|-------------------|---------------|
	--0/7--7-7-7----|-5-5--7-7-5--------|---------------|
	----------------|------------8---5--|--8~~~5--5--8--|
	----------------|--------------8----|--------8------|
	


	----------------|-------------------|
	----------------|-------------------|
	--0/7--7-7-7--5-|-------------------|
	----------------|--8--7--8--7--5---|
	----------------|-------------------|
	----------------|-------------------|


estos son los acordes no se si esten bien pero se oye bien
tipo de rasgueo arriba,abajo,abajo,bajeos hacia arriba.
A         C#m  F#m
  Vienes caminando 
        A   C#m   F#m
  Y no sabes tu destino,
A        C#m    F#m
  Conquistando sueños
            A     C#m    F#m
  Sueñas llegar a ser deidad.

A         C#m  F#m
  Sigues caminando 
          A   C#m  F#m
  Sobre viejos territorios
A     C#m    F#m
  Invocando fuerzas que 
     A    C#m  F#m
  jamás entenderas.

E
 Y vienes desde allá 
		  F#m
 Donde no sale el sol

 Donde no hay calor, 
E 
 Donde la sangre nunca
           F#m 
 Se sacrificó por un amor, 
      C#m          E
 Pero aquí no es así
    A		    E
 Ah ah ah ah ah ah.

A       C#m  F#m
 Vienes caminando 
      A      C#m    F#m
 Ignorando sagrados ritos,
A     C#m    F#m
 Pisoteando sabios templos
      A    C#m  F#m
 De amor espiritual.

A       C#m   F#m
 Largas vidas siguen 
             A    C#m     F#m
 Velando el sueño de un volcán,
A         C#m    F#m
 Para una alma eterna 
       A       C#m   F#m
 Cada piedra es un altar. 

E
 Y vienes desde allá 
		  F#m
 Donde no sale el sol

 Donde no hay calor, 
E 
 Donde la sangre nunca
           F#m 
 Se sacrificó por un amor, 
      C#m          E
 Pero aquí no es así
    A		    E
 Ah ah ah ah ah ah.

E
 Y vienes desde allá 
		  F#m
 Donde no sale el sol

 Donde no hay calor, 
E 
 Donde la sangre nunca
           F#m 
 Se sacrificó por un amor, 

E
 Ah ah ah ah

 Ah ah ah ah
F#m
 Ah ah ah ah

 Ah ah ah ah
E
 Ah ah ah ah
             A
 Ah ah ah ah.

   A  C#m F#m  E
|--0---4---2---0--|
|--2---5---2---0--|
|--2---6---2---1--|NOTA:ESTA ROLA SE LA CHINGARON NO SE DONDE
|--2---6---4---2--|PERO LA PUEDES CONSEGUIR EN SAN CRISTOBAL DE ECATEPEC 
|--0---4---4---2--|HAY UNA TIENDA DE CANCIONES INSOLITAS
|--0---4---2---0--|pronto enviare la del miercoles de ceniza en vivo
daniel baruc reyes Jiménez   que viva el rock
cualquier duda a [email protected]
hechelen ganas y que chinge su madre el gobierno

Fuente original: LaCuerda
Colaborador original: daniel baruc reyes jimenez [[email protected]]





Calificar esta versión:
Aviso: Este fichero es trabajo propio de su transcriptor y representa su interpretación personal de la canción. El material contenido en esta página es para exclusivo uso privado, por lo que se prohibe su reproducción o retransmisión, así como su uso para fines comerciales.
Más versiones de Aqui No Es Asi, Jaguares
Aqui No Es Asi
tablatura
Aqui No Es Asi (ver 2)
tablatura
Descubre más canciones de Jaguares