Tal Vez Mañana Brille El Sol, Jaf (bajo)

Autor: Anónimo | 25302 visualizaciones

---------------------------------------------------------------------------
Sacar el ritmo y las volocidades correspondientes de acuerdo al tema.
Cualquier duda será bienvenida.
Espero que les sirva, saludos.

---------------------------------------------------------------------------
(01:15)

   E          B
E|--------------|
A|19/--------(2)|
D|--------------|
G|--------------|
(slide hacia abajo)

(01:17)

     F#           A    E         E               F#             A
que fría es...                             ...camino por el parque...

E|2--2-2--02--02-|5--05---0-0--05---00-0------7-|2--02-2--02--02-5--2h4p2-|
A|---------------|-----7---------7--------7-5---|-------------------------|
D|---------------|------------------------------|-------------------------|
G|---------------|------------------------------|-------------------------|


(01:40)

E          E                G#             A          B     C#      B
        ohh no no     es tentador, en frente mio el vaso de licor....

E|0--0-0--05---0-0----7-2/-|4--44-4-4--04-|5--55--------------------7-|
A|----------7-----7-5------|--------------|------7/--(14)--4--44-4----|
D|-------------------------|--------------|---------------------------|
G|-------------------------|--------------|---------------------------|


(02:00)

  A B E C#  A B E F# G#A    B     B         C#       A           E
y dia a...        es un tajo en mi...estás aquí,   x q' no estás aquí

E|5-7-70----5-7-0|22--45--------|------17------------17-|17/---(0)----/12-|
A|-------4-4-----|---------2--2/|14------14-16--16-14---|-----------------|
D|---------------|--------------|-----------------------|-----------------|
G|---------------|--------------|-----------------------|-----------------|
                                                       (slides hacia abajo)

(02:20)

 A       G#F#   E     B     F#   G#A    B     C#
no he querido a nadie... ...detener mi corazon...

E|5--5-5--4-2--020--02-7--07-22--04-5--5-7--057----|
A|---------------------------------------------4---|
D|-------------------------------------------------|
G|-------------------------------------------------|


(02:37)
                A B  E C#    A B E F# G#A  B
             tal vez mañana...permita que en mi existir...

E|0-7--------7-|5-7-70------75-7-0|22--45-----|
A|----4-4-4----|-------4-04-------|--------2--|
D|-------------|------------------|-----------|
G|-----6-6-----|------------------|-----------|


(02:49)

       B           C#           A             E
 ...vuelva  la  ilución      de nuevo  junto a mi...

E|--------------------------------------------(0)--------12/--|
A|----------------------------------------9-7-----------------|
D|9h11p(9)--0-7-9-(11)-----11-9-(7)--7h9p7--------------------|
G|---------------------9p7------------------------------------|
                                                    (slide hacia abajo)


(03:00)

 A        G#F#  E      B       G#A     B    C#
(SOLO GUITARRA)

E|5--5-5--4-2--020--02-7--7-2--04-5--5-7--------|
A|---------------------------------------7/(16)-|
D|----------------------------------------------|
G|----------------------------------------------|


(03:19)
       A     B     E        C#      A       B
   tal vez mañana brille el sol   y su   calor

E|11p9-----------------------------------------|
A|-----(7)---(9)-----------(11)----(7)-----(9)-|
D|----------------(7)--------------------------|
G|---------------------------------------------|


(02:25)

 E F# G#A  B        B         C#        A              E
permita que...    vuelva la ilución   de nuevo junto a mi.

E|022--45-----|-----------------------------------------------|
A|---------2--|----------------------------------------(7)----|
D|------------|9h11p(9)------(11)-------(7)-------------------|
G|------------|-----------------------------------------------|


---------------------------------------------------------------------------
pull off = p
hammer off = h
/ = slide hacia abajo y hacia arriba
() = dejar sonando o no marcar después de un slide

---------------------------------------------------------------------------
Calificar esta versión:
Aviso: Este fichero es trabajo propio de su transcriptor y representa su interpretación personal de la canción. El material contenido en esta página es para exclusivo uso privado, por lo que se prohibe su reproducción o retransmisión, así como su uso para fines comerciales.
Más versiones de Tal Vez Mañana Brille El Sol, Jaf
Tal Vez Mañana Brille El Sol
acordes
Tal Vez Mañana Brille El Sol
bajo
Descubre más canciones de Jaf