Maravillosa Esta Noche, Jaf (tablatura) (ver 2)

Autor: wegmuller | 19433 visualizaciones

EL TEMA TIENE UN POAR DE ARREGLOS PARA AQUELLOS QUE NO LO CANTAN

INTRO
e---------------------------------------------------------
B---------------------------------------------------------
G-----14-12-14-----14-12--------14-12-14-------------12-12     X 2
D--12-----------12-------14--12-----------12-12--14-------  (SE HACE
A---------------------------------------------------------  DOS VECES)
E---------------------------------------------------------

CANTO

        ARREGLO MENCIONADO ARRIBA (C,D,C#,C)
                   C                                          D   C#  C
e--7-7-8-7----10---8----7-7-8-7-------7-------7-7-8-7----10---10--9---8----
B----------10------8------------10--7---10-8----------10------10--9---8----
G------------------9------------------------------------------11--10--9----
D------------------10-----------------------------------------12--11--10---
A--------------------------------------------------------------------------
E--------------------------------------------------------------------------


e--7-7-8-7-------7---------12-12-12-10------------7-7-10-
B----------10--7---10-8----------------10--6-7-8---------
G--------------------------------------------------------
D--------------------------------------------------------
A--------------------------------------------------------
E--------------------------------------------------------

e---------7-8--8-7---------7------
B-------8----------10-10-7---10-8-
G--9--9---------------------------
D---------------------------------
A---------------------------------
E---------------------------------


        SE REPITE TODO OTRA VEZ DESDE LA INTRO
             Y DESPUES LA SEGUNDA INTRO

 LA SEGUNDA INTRO

e--------------------------------------------------------
B--------------------------------------------------------
G-----14-12-14-----14-12--------14-12-14----------12-12--
D--12-----------12-------14--12----------12-12-14--------
A--------------------------------------------------------
E--------------------------------------------------------

e----------------------------------------------12-----
B----------------------------------------12-13----15--
G-----14-12-14-----14-12--------14-12-14--------------
D--12-----------12-------14--12-----------------------
A-----------------------------------------------------
E-----------------------------------------------------

ESTRIBILLO

e--7-7-7-7--------------------------------
B----------8------------------------------
G------------7----------------------------
D--------------9--------------------------
A----------------10-10-10-10-10-10-10-----
E-----------------------------------------

e--7-10-12--12-12--8-9-10--10-10--8-8-7--7-10----
B------------------------------------------------
G---------------------------------------------9--     X 2
D------------------------------------------------  (SE HACE
A------------------------------------------------  DOS VECES)
E------------------------------------------------

e--7-10-12--12-12--8-9-10--7-7-7-8-7----------7--------------
B------------------------------------10-8-7-----10-8---------
G-------------------------------------------7--------7-------
D------------------------------------------------------9-----
A--------------------------------------------------------10--
E------------------------------------------------------------

                                 FIN

ESPERO QUE LES GUSTE CUALQUIER COSA ME PREGUNTAN
EN UN MAIL A jujofe2004@hotmail.com
Gracias y Suerte

Comentarios del colaborador: La canción no la copie pero tambien la subi yo a lacuerda.net

Calificar esta versión:
Aviso: Este fichero es trabajo propio de su transcriptor y representa su interpretación personal de la canción. El material contenido en esta página es para exclusivo uso privado, por lo que se prohibe su reproducción o retransmisión, así como su uso para fines comerciales.
Más versiones de Maravillosa Esta Noche, Jaf
Maravillosa Esta Noche
acordes
Maravillosa Esta Noche (ver 2)
acordes
Maravillosa Esta Noche
tablatura
Maravillosa Esta Noche (ver 2)
tablatura
Maravillosa Esta Noche (ver 3)
tablatura
Maravillosa Esta Noche (ver 4)
tablatura
Maravillosa Esta Noche
teclado
Maravillosa Esta Noche
armonica
Descubre más canciones de Jaf