Volver A La Ternura, Ivan Ovalle (tablatura)

Autor: Anónimo | 33859 visualizaciones

E:-5-5-5-5-5-7-9-10-10--9-10-9-10-7--4-4-4-4-4-5-7-9-9--7-9-7-9-5
B:---------------------------------------------------------------
G:-6-6-6-6-6-7-9-11-11--9-11-9-11-7--4-4-4-4-4-6-7-9-9--7-9-7-9-6

E:-5-5-5-5-7-9-10--9-10-9---4-4-4-4-5-7-9-9--7-9-7-9-5-----------
B:---------------------------------------------------------------
G:-6-6-6-6-7-9-11--9-11-9---4-4-4-4-6-7-9-9--7-9-7-9-5-----------


A
van mil veces que he venido

a brindarte mi cariño
                      E
mostrando un mundo mejor

y tan lleno de verdades

como todo el mundo sabe

yo he visto morir mil tardes
                   A A B C# E
en espera de tu amor

cuando pasas

por mi lado
         A A B C# E
quedo mudo

como el cielo

sin las aves
        A A B C# D
veraneras

de igual forma cuando llega el cruel verano
                          A A B C# E
y se calla el rio mas grande

y si brillan

mas mis ojos
        A A B C# D
quedo mudo

porque cuando cruzo el puente

de este hombre ya no sabe

E:-5-5-5-5-5-7-9-10-10--9-10-9-10-7--4-4-4-4-4-5-7-9-9--7-9-7-9-5
B:---------------------------------------------------------------
G:-6-6-6-6-6-7-9-11-11--9-11-9-11-7--4-4-4-4-4-6-7-9-9--7-9-7-9-6

E:-5-5-5-5-7-9-10--9-10-9---4-4-4-4-5-7-9-9--7-9-7-9-5-----------
B:---------------------------------------------------------------
G:-6-6-6-6-7-9-11--9-11-9---4-4-4-4-6-7-9-9--7-9-7-9-5-----------

D                                             E
y asi quien vuelve a la ternura con sufrimmiento
D                                       A
asi quien reparte cariño pregunto al mundo
D                                            E
si en mi rostro esta enmarcado un resentimiento
D                                          A
porque quieres y no quieres valla que orgullo
A                  D
porque quieres y no quieres negra
                   A
mi alma se viste de luto
A                  D
porque quieres y no quieres negra
                   A
mi alma se viste de luto
Calificar esta versión:
Aviso: Este fichero es trabajo propio de su transcriptor y representa su interpretación personal de la canción. El material contenido en esta página es para exclusivo uso privado, por lo que se prohibe su reproducción o retransmisión, así como su uso para fines comerciales.
Más versiones de Volver A La Ternura, Ivan Ovalle
Volver A La Ternura
acordes
Volver A La Ternura
tablatura
Descubre más canciones de Ivan Ovalle