Por Amor Al Arte, Ivan De Guevara (tablatura)

Autor: dragster | 41886 visualizaciones



intro: F#m D E
1|------------------|----------2-----2-|E
2|------------------|-------3----------|B
3|------------------|----2--------2----|G
4|------------------|-0----------------|d
5|----4-------------|------------------|a
6|-2-----2--0--2--4-|------------------|e

1|----5--4--------5-|-------4-----4--5-|E
2|----5--5--5-------|-5--------5-------|B
3|-2-----------4----|----4-------------|G
4|------------------|------------------|d
5|------------------|------------------|a
6|------------------|------------------|e

1|------------------|------------------|E
2|-5-----5----------|-------------5----|B
3|----4-------------|----------------4-|G
4|------------------|-0--2-----0-------|d
5|------------------|----2--0----------|a
6|----------0h-2h-4-|------------------|e

1|----5--4--------5-|------------------|E
2|-5--5--5--5-------|------------------|B
3|-------------4----|----------------2-|G
4|------------------|------------------|d
5|------------------|------------------|a
6|------------------|-------------2----|e
                    por amor al arte

1|-2-----2--------2-|----2-----------2-|E
2|------------------|------------------|B
3|----2--------2----|-2-----2-----2----|G
4|------------------|----------0-------|d
5|------------------|------------------|a
6|----------4-------|------------------|e
                           dejaron de

1|----2-----------4-|----4-----------2-|E
2|------------------|------------------|B
3|-2-----2-----4----|-4-----4-----2----|G
4|----------2-------|------------------|d
5|------------------|------------------|a
6|------------------|----------2-------|e
escribirse historas      para contarte

1|-------2----------|----2--------2----|E
2|-2--------2-------|-------2----------|B
3|----2--------2----|-2--------2-----2-|G
4|------------------|------------------|d
5|----------------4-|------------------|a
6|------------------|------------------|e
                                     se

1|-------2--------2-|----------4-------|E
2|----------3-------|-3-----------5----|B
3|----2--------2----|-------4--------4-|G
4|-0----------------|----2-------------|d
5|------------------|------------------|a
6|------------------|------------------|e
 secaronlos mares de sueños          pa'

1|-4-----------5----|----5-----------5-|E
2|----5-----------5-|-------5----------|B
3|----------6-------|-6-----------6----|G
4|-------7----------|----------7-------|d
5|------------------|------------------|a
6|------------------|------------------|e
    despertarte                     por

1|-------5----------|-5--------5-------|E
2|-5--------5-------|----6--------6----|B
3|----6-----------7-|-------7----------|G
4|------------------|----------------7-|d
5|------------------|------------------|a
6|-------------4----|------------------|e
  amor al arte   la    noche    se

1|----5--------5----|-------2--------2-|E
2|-------6--------6-|----------3-------|B
3|-7--------7-------|----2--------2----|G
4|------------------|-0----------------|d
5|------------------|------------------|a
6|------------------|------------------|e
hizo    de    dia    borrando       la

1|----------2-------|-2-----------4----|E
2|-3-----------3----|----3-----------5-|B
3|-------2--------2-|----------4-------|G
4|----0-------------|-------2----------|d
5|------------------|------------------|a
6|------------------|------------------|e
       obscura      sombria     de     tu

1|----4-----4-------|E
2|-------5--5-------|B
3|-4--------4-------|G
4|----------2-------|d
5|------------------|a
6|------------------|e
soledad


          F#m
por amor al arte
   D                 E          F#m
la luna se bajo del cielo pa consolarte
     D                    E           A
las nubes dejaron paso al sol para iluminarte
            C#m
por amor al arte

tu vida ya no era tan fría
    D                                  E
y dejaste de sentirte vacía por tu soledad


                 A
Y apareció en tu vida

la chica de tus sueños
                C#m
otra princesa herida

y ella curó tu infierno
           D
lo que tú no sabías que aunque nacieras princesa
                E
no querías un Romeo

esperabas a Julieta
                A
Nadie supo explicarte porque la querías
                    C#m
que el hombre de tu vida se llamaba María
                      D
pero ahora escúchame amiga

si ella tambien quiere amarte
                      E
no hay que darle más vueltas
                          F#m    D E
yo se.. que es por amor al arte
               F#m   D E
es por amor al arte

            F#m
Por amor al arte
   D                 E           F#m
lloraste lágrimas de miedo hasta secarte
  D                   E           A
dejaste a un lado cada duda para lanzarte
            C#m
por amor al arte

supiste salir adelante
    D                                   E
rompiendo por fin las cadenas de tu soledad


                 A
Y apareció en tu vida

la chica de tus sueños
                C#m
otra princesa herida

y ella curó tu infierno
           D
lo que tú no sabías que aunque nacieras princesa
                E
no querías un Romeo

esperabas a Julieta
                A
Nadie supo explicarte porque la querías
                    C#m
que el hombre de tu vida se llamaba María
                      D
pero ahora escúchame amiga

si ella tambien quiere amarte
                      E
no hay que darle más vueltas
                          F#m    D E
yo se.. que es por amor al arte
               F#m   D E
es por amor al arte


D
y al fin te ilusionaste
F#m           D    C#m Bm    E
saliste y gritaste, de tu soledad

                 A
Y apareció en tu vida

la chica de tus sueños
                C#m
otra princesa herida

y ella curó tu infierno
           D
lo que tú no sabías que aunque nacieras princesa
                E
no querías un Romeo

esperabas a Julieta
                A
Nadie supo explicarte porque la querías
                    C#m
que el hombre de tu vida se llamaba María
                      D
pero ahora escúchame amiga

si ella tambien quiere amarte
                      E
no hay que darle más vueltas
                             A
yo se.. que aparecio en tu vida....
                C#m
otra princesa herida....
                D         E
lo que tu no sabias....
                     A
que aparecio en tu vida.





Comentarios del colaborador: lacuerda

Calificar esta versión:
Aviso: Este fichero es trabajo propio de su transcriptor y representa su interpretación personal de la canción. El material contenido en esta página es para exclusivo uso privado, por lo que se prohibe su reproducción o retransmisión, así como su uso para fines comerciales.
Más versiones de Por Amor Al Arte, Ivan De Guevara
Por Amor Al Arte
acordes
Por Amor Al Arte
tablatura
Descubre más canciones de Ivan De Guevara