El Virus Del Miedo, Ismael Serrano (tablatura)

Autor: Anónimo | 32986 visualizaciones



Version Acustica


Intro:

Intro 1 - Intro 2 - (I - II - III - IV) X2


A:

I          II
Lo amaban, ni más ni menos,
III
y se sacaba cada mañana
IV
las espinas del sueño.
Am       C
Juraba y maldecía
B7
y se enredaba en la alambrada
Em
de la mansa rutina.

I             II
Vivía como tú o como yo.
III
Los viernes por la noche
IV
iba a buscar a su amor.
Am
Fumaba tranquilo,
C
planeaba la semana
B7
y ella le arrancaba el cigarro
Em         (Em-D/F#)
y lo besaba.

B:

G9                          D/F#
Y un día lo mordió el virus del miedo.
Em7
Entendió que las mujeres
Bm7
nunca tienen dueño.
      C9               Bm7
Y temió que ella marchase,
Am7
que se agotase el manantial
             B7        VI: 0-2
sin un por qué.

G9                            D/F#
Venció el miedo y faltó a la última cita,
Em7
no descolgó el teléfono
Bm7
que aullaba en la mesilla.
         C9          Bm7
Y el temor a la derrota
Am7                       B7
lo agarrotó como un calambre,
                Intro 2
sin un por qué.

A:

Duro, intenso y precario...
Se enfrentaba cada día
al oleaje en el trabajo.
Y una mañana la cobardía
lo paralizó en la puerta
y no entró a la oficina.

Volvía a despertar
y empezaba el periódico
como tantos -por detrás.
Vio y sintió la noche
del planeta y su desastre,
tuvo miedo y decidió
no salir a la calle.

B:

Y ahí lo tienes encerrado en casa,
temblando como un niño,
sellando las ventanas,
para no ver, ni escuchar,
sentir, notar la vida estallando fuera.
Por miedo a sentir miedo
fue a la cama,
como una oruga se escondió
y envuelto entre las mantas
se durmió,
hizo humo el sueño
y se olvidó del mundo
por miedo a despertar.

C#m - Amaj7 - F#m - B7
C#m - Amaj7 - F#m7 - G#m7 - Am7* - V

Aún sigue dormido.
Pasaron los inviernos
y aún sigue escondido,
esperando que tu abrazo
le inocule la vacuna
y elimine el virus del miedo
y su locura.

Final:
Em7* - D - C - C - Am - B7 - Em9

|------------------------------------------|

Intro 1:

E|--------0--------0--------0--------0-|
B|----8--------8--------7--------7-----|
G|------9--------9--------6--------6---|
D|--9--------9--------8--------8-------|
A|-------------------------------------|
E|-------------------------------------|

E|--------0--------0--------7--------7--|
B|----7--------7------------------------|
G|------5--------5--------8--------8----|
D|--7--------7----------9--------9------|
A|--------------------------------------|
E|--------------------7--------7--------|

|------------------------------------------|

Intro 2

E|--------0--------0--------0--------0-|
B|----8--------8--------7--------7-----|
G|------9--------9--------6--------6---|
D|--9--------9--------8--------8-------|
A|-------------------------------------|
E|-------------------------------------|

E|--------0--------0---------------|
B|----7--------7-------------------|
G|------5--------5-----------------|
D|--7--------7---------------------|
A|-----------------------0--3-2-0--|
E|--------------------2------------|

|------------------------------------------|

          I                  II
E|------------------|------------------|
B|-------8--------8-|-------7--------7-|
G|-----9--------9---|-----6--------6---|
D|---9--------9-----|---8--------8-----|
A|------------------|------------------|
E|-0--------0-------|-0--------0-------|

         III                 IV
E|------------------|------------------|
B|-------7--------7-|-------5--------5-|
G|-----5--------5---|-----4--------4---|
D|---7--------7-----|---5--------5-----|
A|------------------|------------------|
E|-0--------0-------|-0--------0-------|

       V
E|-----7--5--|
B|----5------|
G|---5-------|
D|--5--------|
A|-5---------|
E|-----------|

|------------------------------------------|


Am:   x02210
Am7:  x02010
Am7*: 5x550x
C:    x32010
B7:   x21202
Em:   022000
Em9:  024000
D/F#: 2x0230
G9:   3x0230
Em7:  022030
Em7*: xx2003
C9:   x32030
Bm7:  x24232
C#m:  x46654
AMaj7:x02120
F#m7: 2x220x
G#m7: 4x440x
D:    xx0232





Calificar esta versión:
Aviso: Este fichero es trabajo propio de su transcriptor y representa su interpretación personal de la canción. El material contenido en esta página es para exclusivo uso privado, por lo que se prohibe su reproducción o retransmisión, así como su uso para fines comerciales.
Más versiones de El Virus Del Miedo, Ismael Serrano
El Virus Del Miedo
acordes
El Virus Del Miedo (ver 2)
acordes
El Virus Del Miedo
tablatura
Descubre más canciones de Ismael Serrano