Bombardero, Inyectores (tablatura)

Autor: ferxooo | 34667 visualizaciones



Inyectores - Bombardero

Album: Nose :P
Instrument: Guitar
Tuning: eBGDAE

Tabbed By: FernandooEspezua :D


Intro

e||-------------------------------------------------------
B||-------------------------------------------------------
G||---------------33-55--------------33-55----------------
D||--555-3-555-33-33-77--555-3-55-33-33-77----------------X2
A||--777-3-777-11-55-77--555-3-55-11-55-77----------------
E||--777-5-777-11--------777-5-77-11----------------------


Verse

e||-------------------------------------------------------
B||-------------------------------------------------------
G||---------------33-55--------------33-55----------------
D||--555-3-555-33-33-77--555-3-55-33-33-77---------------- X4
A||--777-3-777-11-55-77--555-3-55-11-55-77----------------
E||--777-5-777-11--------777-5-77-11----------------------

Chorus


e||-------------------------------------------------------
B||-------------------------------------------------------
G||----------------------------------------- -------------
D||--5-5-5-5-5-5-5--3-3-3-3--2-2-2-2---------------------- X4
A||--5-5-5-5-5-5-5--1-1-1-1--2-2-2-2----------------------
E||--3-3-3-3-3-3-3--1-1-1-1--0-0-0-0----------------------


            e||------------
            B||------------
            G||------------
 TERMUNA EN D||--2--2--2--2
            A||--2--2--2--2
            E||--0--0--0--0


Solo

e||------------------------------------------------------
B||------------------------------------------------------
G||------------------------------------------------------
D||--7br-7br-9b-11b-12b---7br-7br-9b-11b-12b-------------
A||------------------------------------------------------
E||------------------------------------------------------


e||------------------------------------------------------
B||------------------------------------------------------
G||----------5-------------------------------------------
D||-----5-5-5--7b-7h5-7-5----------5br-5br-5br-5br-5br---
A||--5h7-7-7--------------7-5----------------------------
E||------------------------------------------------------


e||------------------------------------------------------
B||------------------------------------------------------
G||------------5-5-5-4-4-4-------------------------------
D||--7-7-5-7-7-------------------------------------------X4
A||------------------------------------------------------
E||------------------------------------------------------


*Lyrics*
Intro
Verso
Despega bombardero, vuela sobre
el miedo de tu corazón
Y cuando estés surcando el cielo
descarga furioso todo tu interior
Vamos vuela bombardero
No importan los heridos si ya no hay compasión
Y cuando estés solo en el cielo
Mira con desprecio todo lo que pasó

Coro
Y ahora veo con tranquilidad
Ya no temo sé lo que significa amar
Y ahora siento la necesidad
De volar de aquí y no verte nunca más

Verso
Sube bombardero, cargado de energía
Y de infelicidad
Y cuando estés encima de ellos
Lánzales tu vida y enseña tu maldad
Y ahora vuelve más furioso
Destruye lo precioso que algún día te importó
Y cuando estés de vuelta en casa
Mira las heridas que el tiempo te dejó

Coro
Y ahora vuelo con tranquilidad
Ya no temo sé lo que significa odiar
Y ahora siento la necesidad
De volar de aquí y no verte nunca más

Solo

Verso
Despega bombardero, vuela sobre
el miedo de tu corazón
Y cuando estés surcando el cielo
descarga furioso todo tu interior
Vamos vuela bombardero
No importan los heridos si ya no hay compasión
Y cuando estés solo en el cielo
Mira con desprecio todo lo que pasó

Coro
Y ahora veo con tranquilidad
Ya no temo sé lo que significa amar
Y ahora siento la necesidad
De volar de aquí lejos de este lugar

Y ahora vuelo con tranquilidad
Ya no temo sé lo que significa odiar
Y ahora siento la necesidad
De volar de aquí y no verte nunca más





Calificar esta versión:
Aviso: Este fichero es trabajo propio de su transcriptor y representa su interpretación personal de la canción. El material contenido en esta página es para exclusivo uso privado, por lo que se prohibe su reproducción o retransmisión, así como su uso para fines comerciales.
Más versiones de Bombardero, Inyectores
Bombardero
acordes
Bombardero
tablatura
Descubre más canciones de Inyectores