Perdonado (niño Condenado), Invisible (bajo)

Autor: Anónimo | 24182 visualizaciones



Son 7:05, pero hay partes que repite. Estén atentos.

Intro

G|-2--0-------------------2-0--|
D|-------4--4-2-0-------------4|
A|----------------4-2-1-0------|
E|-----------------------------|

G|-----7-----7---------5---5---5---|
D|---------7---7-------------5---5-|
A|-0-5---5-------(0)-3---3---------|
E|---------------------------------|

G|-------4-----------------(4)-4-----------|
D|----------------2-3-4------------4-4-----|
A|-(0)-2---2-2-(2)------0-2------2-----2-0-|
E|-----------------------------------------|

(0:30) Parte 1

G|-----7-----7-----------5---5---5---|
D|---------7---7---------------5---5-|
A|-0-5---5-------5-(0)-3---3---------|
E|-----------------------------------|

G|----------4------------2h4-----4---4-2---------|
D|-------(4)-------4-4-4-------4---4-----4-2-4---|
A|-(0)-2------2-(2)----------2-----------------2-|
E|-----------------------------------------------|

(0:44) Parte 2

G|---2--0-0-2-0-2-0--------------------|
D|----------------------4--4-2---------|
A|-0----------------(0)--------0-4-2-1-|
E|-------------------------------------|

G|---2--0-0h2-0h2-0-------|
D|----------------------4-|
A|-0----------------(0)---|
E|------------------------|

(1:00)

G|-----7-----7---------5---5---5---|
D|---------7---7-------------5---5-|
A|-0-5---5-------(0)-3---3---------|
E|---------------------------------|

G|-------4--------------2-3-4-----------4----------|
D|----------------2-3-4-----------------------4----|
A|-(0)-2---2-2-(2)------------0-2-2-2-2---2-2---2-0|
E|-------------------------------------------------|

G|-----7-----7---------5---5---5---|
D|---------7---7-------------5---5-|
A|-0-5---5-------(0)-3---3---------|
E|---------------------------------|

G|-------4----------------4---------|
D|----------4-4-2-4----------4-4----|
A|-(0)-2--2---------2-(2)--2-----2-0|
E|----------------------------------|

G|-----7-----7---------5---5---5---|
D|---------7---7-------------5---5-|
A|-0-5---5-------(0)-3---3---------|
E|---------------------------------|

G|-----|
D|-----|
A|-2---|
E|-----|

Canto

"Habla conmigo..." (En esta parte el bajo está silenciado)

"Cuando quieras..." (aparece el bajo...)

G|-4---------2-4---------2-4-5-|
D|-----2-4-5-------2-4-5-------|
A|---2-----------2-------------|
E|-----------------------------|

"Habla conmigo..." (En esta parte el bajo está silenciado)

"la Vendimia..." (aparece el bajo...)

G|-(4)--------2-4---------2-4-5-|
D|------2-4-5-------2-4-5-------|
A|----2-----------2-------------|
E|------------------------------|

(2:37)

"La delicia..."
(Traten de sincronizar las notas fantasmas () con el bombo)

G|-----------(4)-----------2-------(4)-----------2-4-5--5---5---5----|
D|-------(4)-----(4)-2-4-5-----(4)-----(4)-2-4-5--------------5---5--|
A|-14s-2---------------------2----------------------------3---------3|
E|-------------------------------------------------------------------|

(2:49)

G|------|
D|-4----|
A|----4-|
E|------|

G|----7-----7-8-9-----9-10-11|
D|--7-------------(9)--------|
A|5-----5-5------------------|
E|---------------------------|

G|---5-----5-6-7-----7-8-9-|
D|---------------(7)-------|
A|-3---3-3-----------------|
E|-------------------------|


G|----7-----7-8-9-----9-10-11|
D|--7-------------(9)--------|
A|5-----5-5------------------|
E|---------------------------|

G|---5-----5-6-7-----7-8-9-|
D|---------------(7)-------|
A|-3---3-3-----------------|
E|-------------------------|


G|----7-----7-8-9-----9-10-11|
D|--7-------------(9)--------|
A|5-----5-5------------------|
E|---------------------------|

G|---5---------------------|
D|---------5-6-7-5-6-7 8-9-|
A|-3---3-3-----------------|
E|-------------------------|

(3:17)

Parte 2 (Todo se repite)

(4:52)

Canto

"Habla conmigo..." (En esta parte el bajo está silenciado)

"Por el diablo..." (aparece el bajo...)

G|-4---------2-4---------2-4-5-|
D|-----2-4-5-------2-4-5-------|
A|---2-----------2-------------|
E|-----------------------------|


"Perdonado..."
(Traten de sincronizar las notas fantasmas () con el bombo)

G|----|-------(4)-----------2-|
D|----|---(4)-----(4)-2-4-5---|
A|-14s|-2---------------------|
E|----|-----------------------|(x3)

G|-------(4)-----------2-4-5--5---------3-5---|
D|---(4)-----(4)-2-4-5------------3-4-5-------|
A|-2----------------------------3-----------3-|
E|--------------------------------------------|

G|-------(4)-----------2-|
D|---(4)-----(4)-2-4-5---|
A|-2---------------------|
E|-----------------------|(x4)

G|-------(4)-----------2-4-5--5---------3-5---|
D|---(4)-----(4)-2-4-5------------3-4-5-------|
A|-2----------------------------3-----------3-|
E|--------------------------------------------|

"Perdonado..." (Todo estos dos cifrados de abajo 4 veces)

G|-------(4)-----------2-4-5-6-7s(4)---------4-|
D|---(4)-----(4)-2-4-5---------------4-5-6-7---|
A|-2-------------------------------------------|
E|---------------------------------------------|

G|-5-------(5)---5---5---|
D|-----(5)---------5-----|
A|---3---------3-------3-|
E|-----------------------|

(6:38) (en el medio del solo de guitarra)

G|-5-------(5)-----5-----7--7-77----|
D|-----(5)-------------7---------5h7|
A|---3---------3-33--5----5---------|
E|----------------------------------|

G|-5-------(5)-----5---------7--|
D|-----(5)----------------------|
A|---3---------3-33--5-55555---5|
E|------------------------------|

G|------19h21p19-17-16p14h16s-4---||
D|--------------------------------||
A|-3s17-------------------------2-||
E|--------------------------------||

():Notas fantasmas
h: Hammer on = Ligado ascendente
p: Pull off = Ligado descendente
s: slide = deslizado

Dudas, errores y comentarios, escriban.
Excelente tema, exelente bajo. ¡¡Suerte!!





Calificar esta versión:
Aviso: Este fichero es trabajo propio de su transcriptor y representa su interpretación personal de la canción. El material contenido en esta página es para exclusivo uso privado, por lo que se prohibe su reproducción o retransmisión, así como su uso para fines comerciales.
Más versiones de Perdonado (niño Condenado), Invisible
Perdonado (niño Condenado)
tablatura
Perdonado (niño Condenado)
bajo
Descubre más canciones de Invisible