La Llave Del Mándala, Invisible (bajo)

Autor: Anónimo | 25048 visualizaciones



Otro buen bajo de este maestro...

Intro

G-------------------------------------------------------------------------------
D---------------------------------------------------9-9-7s16--------------------
A-000000000-7-7-5s14--000000000-5-5-3s12--000000000----------000000000-7-7-5s14-
E-------------------------------------------------------------------------------

'Vamos a verla...'

G------------------------------------------------------------
D---------------------------------------------------9-9-7s16-
A-000000000-7-7-5s14--000000000-5-5-3s12--000000000----------
E------------------------------------------------------------

G----------------------------
D----------------------------
A-000000000-7-6-5-00-3-------
E----------------------------

G------------------------------
D------------------------------
A-0-0000000-0000000-7-6-5-00-3-
E------------------------------(x3)

Puente

G----------
D----------
A----------
E----0-----

'Vamos a verla...'

G------------------------------------------------------------
D---------------------------------------------------9-9-7s16-
A-000000000-7-7-5s14--000000000-5-5-3s12--000000000----------
E------------------------------------------------------------

G----------------------------
D----------------------------
A-000000000-7-6-5-00-3-------
E----------------------------

G------------------------------
D------------------------------
A-0-0000000-0000000-7-6-5-00-3-
E------------------------------(x3)

Puente

G----------
D----------
A----------
E----0-----

'Tanta fè tengo puesta aqui...'

G---------9-------------------------------------------------------12-
D-----------9------------------------------7-10--------9-10-11-12----
A-0-0--0------7s9-9-7-----9-7-6------0-8-8------8-8-10---------------
E---------------------9-7--------9-7---------------------------------

...tiempo'

G------------------9--------------
D-7-7--7-9-------7---5s7-7--------
A----------7-0-0-----------9-7----
E---------------------------------

'y el agua del sol...'

G---9-9------------------------------------------------------12s9--
D-------7-----------------------------7-10--------9-10-11-12-------
A-0-------9-9--7-----9-7-66-----0-8-8------8-8-10------------------
E----------------9-7--------9-7------------------------------------

'...faltan'

G----------------------------
D-7-7--7-9-----------7-------
A----------7-0-0-------9-7---
E--------------------------8-

'Todo Màndala està...'

G----------------------------
D-----10-10------10-10-------
A-8-8-------8-88-------------
E----------------------------(x3)

Intervalo (igual a intro)

G-------------------------------------------------------------------------------
D---------------------------------------------------9-9-7s16--------------------
A-000000000-7-7-5s14--000000000-5-5-3s12--000000000----------000000000-7-7-5s14-
E-------------------------------------------------------------------------------

'Salgamos todos...'

G------------------------------------------------------------
D---------------------------------------------------9-9-7s16-
A-000000000-7-7-5s14--000000000-5-5-3s12--000000000----------
E------------------------------------------------------------

G----------------------------
D----------------------------
A-000000000-7-6-5-00-3-------
E----------------------------

G------------------------------
D------------------------------
A-0-0000000-0000000-7-6-5-00-3-
E------------------------------(x3)

Puente

G------9---
D----------
A----------
E--0-------

'La llave de Màndala es...'

G---9-----------------------------------------------------------10h12s9-
D-----7---7------------------------------7-10--------9-10-11-12---------
A-0-----9---7h9-9-7-----9-7-66-----0-8-8------8-8-10--------------------
E-------------------9-7--------9-7--------------------------------------

...saben'

G-----------------------------
D-7-7-7-7-------777-----------
A---------9-7-0-----9-7-------
E-----------------------9-----

'La llave de Màndala es...'

G---9---9--------------------------------------------------------10h12s9-
D-----7---7------------------------------7-10--------9-10-11-12---------
A-0---------7h9-9-7-----9-7-66-----0-8-8------8-8-10--------------------
E-------------------9-7--------9-7--------------------------------------

'Todo Màndala està...'

G----------------------------
D-----10-10------10-10-------
A-8-8-------8-88-------------
E----------------------------(x2)

...afuera'

G------------
D------(9)---
A------------
E---7------7-

'Todo Màndala està...'

G----------------------------
D-----10-10------10-10-------
A-8-8-------8-88-------------
E----------------------------(x2)

...afuera'

G-------------------
D------(9)---(99)---
A-------------------
E---7------7------7-

Solo de guitarra

G--------------------------------------------------
D---------------44-55-67-55--33-22-------------2-5-
A---44-55-66-77--------------------55----22-33-----
E-5-----------------------------------33-----------(x3)

(el ultimo Riff tiene una variacion)

G---------------------------44-55-66-77-------------
D---------------44-55-67-55-------------44-55-67s14-
A---44-55-66-77-------------------------------------
E-5-------------------------------------------------

Final

G----------------------------------------------------------------------------
D---------------------------------------------------9-9-7s16-----------------
A-000000000-7-7-5s14--000000000-5-5-3s12--000000000----------000000000-7-7-5-
E----------------------------------------------------------------------------





Calificar esta versión:
Aviso: Este fichero es trabajo propio de su transcriptor y representa su interpretación personal de la canción. El material contenido en esta página es para exclusivo uso privado, por lo que se prohibe su reproducción o retransmisión, así como su uso para fines comerciales.
Más versiones de La Llave Del Mándala, Invisible
La Llave Del Mándala
acordes
La Llave Del Mándala
bajo
Descubre más canciones de Invisible