Elementales Leches, Invisible (bajo)

Autor: Anónimo | 33983 visualizaciones



Intro

G|---5------|
D|-3---0----|
A|-------0--|
E|----------|

"Curvas del aire.......,son"  (Verso)            ...Desveló"

G|----------------------------------------------------------7---|
D|------3-4-5-555-6-7------------3-4-5---5---5------5-----7---0-|
A|-5-5-------------------4-5-555-------5---5---3-33---3-5-------|
E|---------------------5----------------------------------------|

Repite lo de arriba 2 veces

G|---5------|
D|-3---0----|
A|-------0--|
E|----------|


"Lo que está y no se usa..." (Riff)

G|-----------------------|
D|-------0-3---2---------|
A|-0-0-0-----3---0-------|
E|-----------------2-3-1-| x2

Repite Verso y Riff

"La totalidad de tu cuerpo..."

G|-----11-------11-----9---------|
D|-9-9----9-8-8----8-7---7-8-9---|
A|-----------------------------7-|
E|-------------------------------|

"La semilla crece..."

G|--------------------|
D|-----------7-6------|
A|-6-4---4-7-----0----|
E|-----5-----------0--|

"Son sangres..."         ...y cuerpos en colores"

G|-----------------------------------------------|
D|-----------------------------------------------|
A|-----------------------------------------------|
E|----0-----------------------0------------------|

Acorde de bajo que le contesta a la guitarra

G|----10-----|
D|----10-----|
A|----8------|
E|-----------|

Repite Verso y Riff

Excelente banda, ¡que lo disfruten!
Cualquier duda escriban...





Calificar esta versión:
Aviso: Este fichero es trabajo propio de su transcriptor y representa su interpretación personal de la canción. El material contenido en esta página es para exclusivo uso privado, por lo que se prohibe su reproducción o retransmisión, así como su uso para fines comerciales.
Más versiones de Elementales Leches, Invisible
Elementales Leches
acordes
Elementales Leches
bajo
Descubre más canciones de Invisible