El Tema De Elmo Lesto, Invisible (tablatura)

Autor: Anónimo | 42860 visualizaciones



Tema muy corto.. nada que decir

e------------/
b-----8--/
g---7--------/
d------------/
a------------/
E------------/

e------------------/
b------------------/
g------------------/
d------------------/
a---7-5------------/
E-------7-6-5-3-0-/

e---------------------------------------/
b---------------------------------------/
g---14´--12----------------------------/
d--------------14—12h14p12-----14-12---/
a--------------------------14-----------/
E---------------------------------------/

... en fin, puntea en pentatónica menor de E
a partir del 12° traste

cualquier duda a [email protected]





Calificar esta versión:
Aviso: Este fichero es trabajo propio de su transcriptor y representa su interpretación personal de la canción. El material contenido en esta página es para exclusivo uso privado, por lo que se prohibe su reproducción o retransmisión, así como su uso para fines comerciales.
Más versiones de El Tema De Elmo Lesto, Invisible
El Tema De Elmo Lesto
tablatura
El Tema De Elmo Lesto
bajo
Descubre más canciones de Invisible