El Rey, Intoxicados (tablatura) (ver 2)

Autor: Anónimo | 40750 visualizaciones



   C        F        C           F      C
e|--------------------------------------------------------
B|-1----1-------1----1-------1-----1----1-------1-----1---
G|-0--------------2--0---0-0---0h2---2--0---0-0---0h2---2-
D|-2--2-----0h3------2-2-------0h3------2-2-------0h3-----
A|-3-----------------3------------------3-----------------
E|--------------------------------------------------------

   C         G                C
e|-------------------3-----------
B|-1-----------------0-0------1--
G|-0---0--------0-0-----------0--
D|-2-2---0--------------------2--
A|-3--------0h2-----------2---3--
E|----------0h3-----------3------


  Solo
e|-------------------------------------------------------------
B|-8------8-------------8------8-------------------------------
G|-7bab/--7//-5---5h7v--7bab/--7//-5---5h7v--5h7-5-7--7ba-5----
D|--------------7--------------------7-------------------------
A|-------------------------------------------------------------
E|-------------------------------------------------------------

e|---------------------------------------
B|---------------------------------------
G|---------------------------------------
D|-5h7-5---------------------------------
A|-------7-5--5h7-5------3h5--7-5--------
E|------------------8-------------8-7-8--


e|----------------8----------10--12v-
B|--------------8---8--10s12---------
G|--------5-7s9----------------------
D|----5-7----------------------------
A|-s7--------------------------------
E|-----------------------------------





Calificar esta versión:
Aviso: Este fichero es trabajo propio de su transcriptor y representa su interpretación personal de la canción. El material contenido en esta página es para exclusivo uso privado, por lo que se prohibe su reproducción o retransmisión, así como su uso para fines comerciales.
Más versiones de El Rey, Intoxicados
El Rey
acordes
El Rey (ver 2)
acordes
El Rey (ver 3)
acordes
El Rey
tablatura
El Rey (ver 2)
tablatura
Descubre más canciones de Intoxicados