Como Ganado, Intoxicados (bajo)

Autor: el_mocoso_gardelito | 33786 visualizaciones



el tema es sencillo... por ahi parece mas complejo pero escuchas el tema y te das cuenta qe es una pavada

Intro:

G---------------|------------------|--------------|--------------------|
D---------------|------------------|--------------|--------------------|
A---------------|------------------|--------------|--5-7---------------|
E---5/7-7-7-7-7-|--2-5-5/7-7-7-7-7-|--5/7-7-7-7-7-|------2-5/7-7-7-7-7-|



G-------------------|            G---------------|--------------------|
D-------------------|            D---------------|--------------------|
A-------------------| X2         A---------------|--5-7---------------|
E---2-5-5/7-7-7-7-7-|            E---5/7-7-7-7-7-|------2-5/7-7-7-7-7-|


G-------------------|            G---------------------|
D-------------------|            D---------------------|
A-------------------| X2         A---5-7---------------|
E---2-5-5/7-7-7-7-7-|            E-------2-5/7-7-7-7-7-|



Despues hace todo el tiempo esto

G-------------------|--------------------|
D-------------------|--------------------|
A-------------------|--5-7---------------|
E---2-5-5/7-7-7-7-7-|------2-5/7-7-7-7-7-|


A veces cambia y hace esto

G-----------|--------------|
D-----------|--------------|
A-----------|--------------|
E---2-5-5-2-|--5/7-7-7-7-7-|

o esto

G-----|--------------|
D-----|--------------|
A-----|--------------|
E---2-|--5/7-7-7-7-7-|



chau loco espero q les cope el tema tanto como a mi y q les salga piola 





Comentarios del colaborador: www.lacuerda.net

Calificar esta versión:
Aviso: Este fichero es trabajo propio de su transcriptor y representa su interpretación personal de la canción. El material contenido en esta página es para exclusivo uso privado, por lo que se prohibe su reproducción o retransmisión, así como su uso para fines comerciales.
Más versiones de Como Ganado, Intoxicados
Como Ganado
acordes
Como Ganado (ver 2)
acordes
Como Ganado
bajo
Descubre más canciones de Intoxicados