El Amigo Que Se Fué, Intocable (bajo)

Autor: Anónimo | 24807 visualizaciones

Intro
G------------------7/9-----------------------5h7---------------------------
D-2-2-2-2--------77------------------------7----5h7------------------------
A3---3---3-2---7---------7-------5----23-5---------5---5--------/5-3--3-2--
E------------5---------5---5-4-3---3-3---------------5--5/-1-3-5----------5

G-------7/9-----------------------5h7--------------------
D-----77------------------------7----5h7-----------------
A---7---------7-------5----23-5---------5---5---------/5-
E--5---------5---5-4-3---3-3---------------5--5/-1-3-5---

G---------------------3/5--------------------
D-----5-3-2-2-2-3-3-3----/5/3----------5-----
A-3-3------2-2---3-3----------3-3-3-5-5----2-
E--3---------------------------3-----3--3-5--


G---------------------3/5---------------/5-4-2----------
D-----5-3-2-2-2-3-3-3----/5/3----------5------2-2--3-5--
A-3-3------2-2---3-3----------3-3-3-5-5----------2----3-
E--3---------------------------3-----3------------------

        sobre todo este dolooooor.....
G-/5-4-2---------------------------------
D-------2-2-3-----3/5-3------3-5-3-------
A----------2--3--5-----5----3-----5--3---
E---------------3-------3--3-------3---3-

este llanto es por un amigo.......
G-----9------------------------9-------9---7----------------------
D--7-9--7-7-5-3----------5------10---10-10--9--7-7--4/5--3--------
A-7------7-----3-5-----5--5-6-----10---------7--7---------3-------
E------------------5-3--------------------------------------1-2-3-

todo lo demas se repite, nomas escuchen bien.

dudas o algo escribanme, tengo mas tabs. iron_maiden234@hotmail.com
Calificar esta versión:
Aviso: Este fichero es trabajo propio de su transcriptor y representa su interpretación personal de la canción. El material contenido en esta página es para exclusivo uso privado, por lo que se prohibe su reproducción o retransmisión, así como su uso para fines comerciales.
Más versiones de El Amigo Que Se Fué, Intocable
El Amigo Que Se Fue
acordes
El Amigo Que Se Fué
bajo
Descubre más canciones de Intocable