La Flor De La Chamiza, Inti Illimani (tablatura) (ver 2)

Autor: Anónimo | 40286 visualizaciones



Capo/Cejillo en segundo/deuxieme traste.

Intro(Secuencia/Sequance:1)

|---------7----5-----0-----------0-------------------0---7---5--0-----|
|------0-------------------0-----------0-----0-----0----------------0-|
|----0------------------------6-----5-----3---------------------------|
|-----------0-----0-----4-----------3------------2---------0----------|
|--2------------------------------------------------------------------|
|---------------------------------------------------------------------|

|------------0--------0---------0---7-----5-----|
|------0--------4------------0------------------|
|---5-----5--------0----------------------------|
|--------------------------------------0-----0--|
|---2-----------0-------------------------------|
|-------------------------3---------------------|

|--0-----------0-----------------0---7---5--0----------------0------|
|--------0------------0--------0----------------0------0---------4--|
|------------------5-----3--------------------------5-----5---------|
|-----4-----6------3---------2---------0----------------------------|
|---------------------------------------------------2------------0--|
|-------------------------------------------------------------------|

Secuencia/Sequance: 2

|---------7-----------------------0-------------------0--2-----3-----5--|
|------0--------7-----------0------------0-----0----0-------------------|
|----0----------------5--------5-----5-----2----------------------------|
|------------5-----5-----4-----------1------------2---------0-----0-----|
|--2--------------------------------------------------------------------|
|-----------------------------------------------------------------------|

|---------5---------0-----0---7--------|
|-------5-----4--0------0-----------7--|
|-----5---------------2----------------|
|--------------------------------5-----|
|--3----------2------------------------|
|--------------------------------------|

|--0------------0-----------0-------0--2----3-----5-----------0--------0--|
|------------0-----1po0----------0----------------------0---------4--0----|
|---------5--------------2---------------------------------6--------------|
|------4----------------------------------0----0-----4--------------------|
|------------------0----------------------------------------------2-------|
|------------------------------3------------------------------------------|

|-------0---7----------|
|-----0------------7---|
|--2-------------------|
|---------------5------|
|----------------------|
|----------------------|

|--0------------0--------------------0--2----3-----5----------5---------0-|
|---------0------------0-----0-----0------------------------5-----4--0----|
|------------5-----5-----2--------------------------------5---------------|
|------4-----------1------------2----------0----0------3------------------|
|-----------------------------------------------------------------2-------|
|------------------------------3------------------------------------------|

|------0---7-------------|
|----0----------7--------|
|-2-------------------5--|
|------------5-----5-----|
|------------------------|
|------------------------|



|--0------------0-----------0-------0--2----3-----0-----------0--------0-|
|------------0-----1po0----------0----------------------0---------4--0---|
|---------5--------------2---------------------------------6-------------|
|------4----------------------------------0----0-----4-------------------|
|------------------0----------------------------------------------2------|
|------------------------------3-----------------------------------------|

Secuencia/Sequance: 3

|------0--10----7-----8-----------8-----5-----7-----------7-|
|----0-------------------------0-----------------------0----|
|---------------------------0-----------------------0-------|
|------------------------7-----------0-----0-----5----------|
|--2--------------------------------------------------------|
|------------0-----0----------------------------------------|
                              1__________ 2___
|----3-----------------0-----|--0--2--3--|-----|
|----------0-----0--------4--|-----------|-----|
|-------------5-----5--------|-----------|-----|
|-0-----0-----4--------------|-----------|-----|
|-------------------------2--|-----------|-----|
|----------------------------|-----------|-----|





Calificar esta versión:
Aviso: Este fichero es trabajo propio de su transcriptor y representa su interpretación personal de la canción. El material contenido en esta página es para exclusivo uso privado, por lo que se prohibe su reproducción o retransmisión, así como su uso para fines comerciales.
Más versiones de La Flor De La Chamiza, Inti Illimani
La Flor De La Chamiza
tablatura
La Flor De La Chamiza (ver 2)
tablatura
Descubre más canciones de Inti Illimani