El Mercado Testaccio, Inti Illimani (tablatura) (ver 2)

Autor: Anónimo | 35609 visualizaciones



I Seccion

E------------------------------------------------------------
A-2-2-0-2-0-2--0---2-2-0-2-0-2--2-3-5-5-5-3--5-0-5-3-5-0-5-3-
E----------------3-------------------------------------------
C------------------------------------------------------------
G------------------------------------------------------------

E---------------------------------------------------0--------------
A-2-2-0-2-0-2--0---2-2-0-2-0-2--2-3-5-5-5-3--5-0--5---5-3-2-3-2-0--
E----------------3------------------------------------------------3
C------------------------------------------------------------------
G------------------------------------------------------------------

E-0-0---0---0-----0--3-2-0---0-----------------------------
A-----6---6----3-2---------6----5-3-2-3-2--1-2-3-2-1-2-----
E------------------------------------------------------3-0-
C----------------------------------------------------------
G----------------------------------------------------------

E-0-0---0---0-----0--3-2-0-------
A-----6---6----3-2---------5-3-2-
E--------------------------------
C--------------------------------
G--------------------------------

E-------------------------------------------
A-1-2-3-2--1-2-3-2--1-2-3-2--1-2-3-2-5-3-2-0
E-------------------------------------------
C-------------------------------------------
G-------------------------------------------

E-------------------------------------------------------
A-------------------------------------------------------
E-4-4-5-5-5-4--5-0--5-8-7-5-4-4-5-5-5-4--5-0--5-8-7-5-3-
C-------------------------------------------------------
G-------------------------------------------------------

E------------------------------------------------------
A--------------------------------------------------0-2-
E-3-3-2-3-2-3--2-0--3-3-2-3-2-3--2-0--3-3-2-3-2-3------
C------------------------------------------------------
G------------------------------------------------------


II Seccion
E------------------------------------------------------------
A-2-2-0-2-0-2--0---2-2-0-2-0-2--2-3-5-5-5-3--5-0-5-3-5-0-5-3-
E----------------3-------------------------------------------
C------------------------------------------------------------
G------------------------------------------------------------

E---------------------------------------------------0--------------
A-2-2-0-2-0-2--0---2-2-0-2-0-2--2-3-5-5-5-3--5-0--5---5-3-2-3-2-0--
E----------------3------------------------------------------------3
C------------------------------------------------------------------
G------------------------------------------------------------------

E-0-0---0---0-----0--3-2-0---0-----------------------------
A-----6---6----3-2---------6----5-3-2-3-2--1-2-3-2-1-2-----
E------------------------------------------------------3-0-
C----------------------------------------------------------
G----------------------------------------------------------

E-0-0---0---0-----0--3-2-0-------
A-----6---6----3-2---------5-3-2-
E--------------------------------
C--------------------------------
G--------------------------------

E-------------------------------------------
A-1-2-3-2--1-2-3-2--1-2-3-2--1-2-3-2-5-3-2-0
E-------------------------------------------
C-------------------------------------------
G-------------------------------------------


E-----------------------------
A-----------------------------
E-4-4-5-5-5-4--5-0--5-8-7-5-4-
C-----------------------------
G-----------------------------

E------------------------------
A-2-2-0-2-0-2-----2--5-3-2-0---
E--------------0-------------4-
C------------------------------
G------------------------------

E------------------------------------------------------------
A------------------------------------------------------------
E-5-5-4-5-4-5--0--5--8-7-5-4-5--5-5-4-5-4-5--0--5--8-7-5-3-2-
C------------------------------------------------------------
G------------------------------------------------------------


E------------------------------------------------------
A--------------------------------------------------0-2-
E-3-3-2-3-2-3--2-0--3-3-2-3-2-3--2-0--3-3-2-3-2-3------
C------------------------------------------------------
G------------------------------------------------------


II Seccion
I Seccion

Final
  MIm7              LA
E---------0---------------0------
A-----2-------2-------0-------0--
E-3---------------0--------------
C---2---2---2---2---1---1---1---1
G--------------------------------




Acordes

 MIm7   LA
E-0-----0-
A-2-----0-
E-3-----0-
C-2-----1-
G-0-----2-





Calificar esta versión:
Aviso: Este fichero es trabajo propio de su transcriptor y representa su interpretación personal de la canción. El material contenido en esta página es para exclusivo uso privado, por lo que se prohibe su reproducción o retransmisión, así como su uso para fines comerciales.
Más versiones de El Mercado Testaccio, Inti Illimani
El Mercado Testaccio
tablatura
El Mercado Testaccio (ver 2)
tablatura
Descubre más canciones de Inti Illimani