Alturas, Inti Illimani (tablatura)

Autor: Anónimo | 40808 visualizaciones



Intro:

-------------------|-----------------------|
-------------------|-----------------------|
-------------------|-----------------------|
--------2-------3--|--------2-------3------|
--0-0-3---0-0-2----|--0-0-3---0-0-2---0-0--|
-------------------|-----------------------|

1ª Parte:

 Am                   E       Am  -  E
-----------------|---------------|
-----------------|---------------|
-----------------|---------------|
--------0-2-2-2--|--2---0-----2--|
--0-2-3----------|----2---3-0----|
-----------------|---------------|

Am                   E       Dm       G                       C  Am
-----------------|---------------------------------------------------|
-----------------|--------------1-0------------1-0----1-0---0--------|
-----------------|-----------3------2---------------2-----2-------0--|
--------0-2-2-2--|-2---0--------------3-3-3--3----------------2-3----|
--0-2-3----------|---2---3-0-----------------------------------------|
-----------------|---------------------------------------------------|

  A#         E           Am - E
-------------------------------|
-------------------------------|
-------------------------------|
--0-0-0--0-3-2-0-3-2-0-2-------|
-------------------------0-----|
-------------------------------|


2ª Parte:

  Am              Dm                Am               Dm
--5-------8-------7-------5-------|--5-------8-------7-------5--------|
----5---5---5---5---6---6---6---6-|----5---5---5---5---6---6---6---6--|
------5-------5-------7-------7---|------5-------5-------7-------7----|
------------------0-------0-------|------------------0-------0--------|
--0-------0-----------------------|--0-------0------------------------|
----------------------------------|-----------------------------------|

  C               E7     Gdim      Dm                  C      C/B
--0-------3-------4-------3-------|-1--------5---------0-------0--------|
----2---2---2---2---3---3---2---2-|---3---3----0---0-----1---1---1---1--|
------0-------0-------4-------3---|-----2--------0---------0-------0----|
------------------2-------2-------|-0--------0--------------------------|
--3-------3-----------------------|--------------------3-------2--------|
----------------------------------|-------------------------------------|

La estructura la pueden acomodar dependiendo la version
que van a tocar y la armonia que acompaña el punteo del charango
es la misma figura de arpegio pero siguiendo los acordes de la melodia
y con algunos bajeos que pueden agregarle, les aconsejo que vean el video
o escuchen bien la melodia suerte.
Am-E-Am-E-Am-E-Dm-G-C-Am-A#-E-Am

arpegio (figura)

--0-------0-------0-------0-------|
----0---0---0---0---0---0---0---0-|
------0-------0-------0-------0---|
------------------0-------0-------|
--0-------0-----------------------|
----------------------------------|

nota: el bajeo va dependiendo el acorde que se ejecute

espero les guste le falta muxo mas pero ps con eso pueden
tocar esta melodia tan bella

leonardo_vt@hotmail.com





Calificar esta versión:
Aviso: Este fichero es trabajo propio de su transcriptor y representa su interpretación personal de la canción. El material contenido en esta página es para exclusivo uso privado, por lo que se prohibe su reproducción o retransmisión, así como su uso para fines comerciales.
Más versiones de Alturas, Inti Illimani
Alturas
tablatura
Alturas
video guitarra
Descubre más canciones de Inti Illimani