Volveré, Interpuesto (tablatura)

Autor: Anónimo | 28154 visualizaciones



este es el intro en la lira

E-------------
B-------------
G-------------
D-----------7-
A--5---5-5--5-
E--3---3-3----



E------------------------------------------12-12-----
B---------10---------12-12-----10--------------------
G---12------12-10-12-------------12-10-12------------
D----------------------------------------------------
A----------------------------------------------------
E----------------------------------------------------


E-----------10--------10----------------------------
B----10-12----12-10---------------------------------
G--12-------------------11-12-12/11--12/11--12/11--12
D----------------------------------12-----12-----12--
A-----------------------------------------------------
E-------------------------------------------------------

SALE PUES AHI ESTA





Calificar esta versión:
Aviso: Este fichero es trabajo propio de su transcriptor y representa su interpretación personal de la canción. El material contenido en esta página es para exclusivo uso privado, por lo que se prohibe su reproducción o retransmisión, así como su uso para fines comerciales.
Más versiones de Volveré, Interpuesto
Volvere
acordes
Volveré
tablatura
Descubre más canciones de Interpuesto