Un Minuto De Amor, Interpuesto (bajo)

Autor: khamilo | 45855 visualizaciones



Em        D
G---------------------
D---------------------
A-7-7?7-7?7?5-5-5-5-5-
E----7---7-----5---5?-
  Em        D         C         G
G----------------------------------------------
D-------------------------------5-5----5-4-2-0-
A-7-7?7-7?7?5-5-5-5-5-3-3-3-3-3----5?5---------
E----7---7-----5---5-----3---3-----------------
  Em        D         C         G
G--------------------------------------------
D-------------------------------5-5----5-5-5-
A-7-7-7-7-7-5-5-5-5-5-3-3-3-3-3----5-5----5--
E----7---7-----5---5-----3---3---------------

  Em        D         C         G
G----------------------------------------------
D-------------------------------5-5----5-4-2-0-
A-7-7?7-7?7?5-5-5-5-5-3-3-3-3-3----5?5---------
E----7---7-----5---5-----3---3-----------------

  Em        D         C         G            C         G
G------------------------------------------------------------------
D-------------------------------5-5----5-5-5-----------5-5---5-5-5-
A-7-7-7-7-7-5-5-5-5-5-3-3-3-3-3----5-5----5?-3-3-3-3-3----5-5---5--
E----7---7-----5---5-----3---3------------------3---3--------------

  Em        D         C         G            C         G
G--------------------------------------------------------------------
D-------------------------------5-5----5-5-5-----------5-5---5-4-2-0-
A-7-7-7-7-7-5-5-5-5-5-3-3-3-3-3----5-5----5?-3-3-3-3-3----5-5--------
E----7---7-----5---5-----3---3------------------3---3----------------

  Em        D
G---------------------
D---------------------
A-7-7?7-7?7?5-5-5-5-5-
E----7---7-----5---5?-
  Em        D         C         G
G----------------------------------------------
D-------------------------------5-5----5-4-2-0-
A-7-7?7-7?7?5-5-5-5-5-3-3-3-3-3----5?5---------
E----7---7-----5---5-----3---3-----------------
  Em        D
G---------------------
D---------------------
A-7-7?7-7?7?5-5-5-5-5-
E----7---7-----5---5?-
  Em        D         C         G
G--------------------------------------------
D-------------------------------5-5----5-5-5-
A-7-7-7-7-7-5-5-5-5-5-3-3-3-3-3----5-5----5--
E----7---7-----5---5-----3---3---------------
  Em        D           C       G
G--------------------------------------------
D-------------------------------5-5----5-5-5-
A-7-7-7-7-7-5-5-5-5-5-3-3-3-3-3----5-5----5--
E----7---7-----5---5-----3---3---------------
  Em        D         C         G            C         G
G--------------------------------------------------------------------
D-------------------------------5-5----5-5-5-----------5-5---5-4-2-0-
A-7-7-7-7-7-5-5-5-5-5-3-3-3-3-3----5-5----5?-3-3-3-3-3----5-5--------
E----7---7-----5---5-----3---3------------------3---3----------------


  Em        D         C        G            C          G
G--------------------------------------------------------------------
D-------------------------------5-5----5-5-5-----------5-5---5-4-2-0-
A-7-7-7-7-7-5-5-5-5-5-3-3-3-3-3----5-5----5?-3-3-3-3-3----5-5--------
E----7---7-----5---5-----3---3------------------3---3----------------


Con esta parte acaba se repite y se va desvaneciendo
Al final de la rola

  Em        D
G---------------------
D---------------------
A-7-7?7-7?7?5-5-5-5-5-
E----7---7-----5---5?-



que vava el rock!!!





Comentarios del colaborador: la cuerda.net

Calificar esta versión:
Aviso: Este fichero es trabajo propio de su transcriptor y representa su interpretación personal de la canción. El material contenido en esta página es para exclusivo uso privado, por lo que se prohibe su reproducción o retransmisión, así como su uso para fines comerciales.
Más versiones de Un Minuto De Amor, Interpuesto
Un Minuto De Amor
acordes
Un Minuto De Amor
bajo
Descubre más canciones de Interpuesto