Sola, Insite (bajo)

Autor: daniel24 | 42113 visualizaciones



G|----------------------------------|
D|----------------------------------|
A|--5~----2~----5~----2222-2222-22--|
D|----------------------------------|

G|----------------------------------|
D|----------------------------------|
A|----------------------------------|
D|-0-0-000-0-00--9-9-999-9-99-------| x4

G|-------------------------------------|
D|-------------------------------------|
A|-------------------------------------|
D|-55555555-77777777-9999999999999999--| x2

G|-------------------------|
D|-------------------------|
A|-------------------------|
D|-555555550-5555-5555-55--|

G|-----------------------------|
D|-----------------------------|
A|-----------------------------|
D|-0-0-000-0-00--9-9-999-9-99--|
 |                             | x2
G|-----------------------------|
D|-----------------------------|
A|-----------------------------|
D|-0-0-000-0-00-9999-9999-99---|

G|----------------------------------|
D|----------------------------------|
A|----------------------------------|
D|-5--5--5-7--7--7-9--9--9-7--7-7---| x2

G|-----------------------------------------|
D|-----------------------------------------|
A|-----------------------------------------|
D|-55-55-55-77-77-77-99-99-99-77-77-77-5~--| x2

G|---------------------|
D|---------------------|
A|---------------------|
D|-5-9~----5~----5-9~--|

G|---------------------------------|
D|---------------------------------|
A|---------------------------------|
D|-555555555-----555555-55557------|
 |                                 | x4
G|---------------------------------|
D|---------------------------------|
A|---------------------------------|
D|-999999999/1---999999-121212127--|


G|-----------------------------|
D|-----------------------------|
A|-----------------------------|
D|-0-0-000-0-00--9-9-999-9-99--|
 |                             | x2
G|-----------------------------|
D|-----------------------------|
A|-----------------------------|
D|-0-0-000-0-00-9999-9999-99---|

G|-----|
D|-----|
A|-----|
D|-0~--|





Calificar esta versión:
Aviso: Este fichero es trabajo propio de su transcriptor y representa su interpretación personal de la canción. El material contenido en esta página es para exclusivo uso privado, por lo que se prohibe su reproducción o retransmisión, así como su uso para fines comerciales.
Más versiones de Sola, Insite
Sola
acordes
Sola
bajo
Descubre más canciones de Insite