Destrozame, Insite (tablatura)

Autor: nickerii | 17235 visualizaciones



AFINACION: DROP C

D---------------------------------
A?8/7-8/7-8/7-8/7-8/7-8/7-8/7-8/7- x3
F---------------------------------
C---------------------------------
G---------------------------------
C---------------------------------
En esta parte del intro tienes k
usar tus dos dedos y solo levantar el
k pisa el traste numero 8 creo k se llama
finger pick o algo así xD

D-------------------------------------
A-10-10-10?10-10-10-10-8-8-8-8-7-7-7-7
F------------------------------------- x5
C-------------------------------------
G-------------------------------------
C-------------------------------------

D------------------------------------------
A?-----------------------------------------
F------------------------------------------
C----9-9----9-9----9-9----9-9----9-9----9--
G?xx?7-7-xx?7-7-xx?7-7-xx?7-7-xx?7-7-xx?7--
C-xx-----xx-----xx-----xx-----xx-----xx----

Tan solo ven escuchame tu sabes...
Olvidame otra vez hazme...


D---------------------------------
A?8/7-8/7-8/7-8/7-8/7-8/7-8/7-8/7-
F---------------------------------
C---------------------------------
G---------------------------------
C---------------------------------

D---------------------------------------------------------------------
A?--------------------------------10-10-10?10-10-10-10-8-8-8-8-7-7-7-7
F---------------------------------------------------------------------
C---9-9-9-9-9-9--11-11-11-11-11-11------------------------------------
G---7-7-7-7-7-7---9--9--9--9--9--9------------------------------------
C---------------------------------------------------------------------
Destrózame y arráncame de todo lo k soy

D---------------------------------------------------------------------
A?--------------------------------10-10-10?10-10-10-10-8-8-8-8-7-7-7-7
F---------------------------------------------------------------------
C---9-9-9-9-9-9--11-11-11-11-11-11------------------------------------
G---7-7-7-7-7-7---9--9--9--9--9--9------------------------------------
C---------------------------------------------------------------------

Hazme entender quiero verte desde este momento







Después siguen estos acordes acompañados del violín

Re5  mi5  do5

C-9---11----7
G-7----9----5

D---------------------------------
A?--------------------------------
F---------------------------------
C?9-9-9-9-9-9-9-9-9-9-9-9-9-9-9-9 en esta parte va pausado
G-7-7-7-7-7-7-7-7-7-7-7-7-7-7-7-7
C---------------------------------

Iwal k aier y saber k siento por k sangro

D---------------------------------
A?--------------------------------
F---------------------------------
C-11-11-11-11-11-11-11-11-11-11-11 iwal va pausado
G--9--9--9--9--9--9--9--9--9--9--9
C---------------------------------

Y saber k miento si t extraño olvidame otra vez

D-----------------------------------
A?----------------------------------
C-x-x-x-x-x-x-x-x-x-x-x-x-x-x-x-x-9-
G-x-x-x-x-x-x-x-x-x-x-x-x-x-x-x-x-7-
C-x-x-x-x-x-x-x-x-x-x-x-x-x-x-x-x---

D---------------------------------------------------------------------
A?--------------------------------10-10-10?10-10-10-10-8-8-8-8-7-7-7-7
F---------------------------------------------------------------------
C---9-9-9-9-9-9--11-11-11-11-11-11------------------------------------
G---7-7-7-7-7-7---9--9--9--9--9--9------------------------------------
C---------------------------------------------------------------------
Destrózame y arráncame de todo lo k soy

D---------------------------------------------------------------------
A?--------------------------------10-10-10?10-10-10-10-8-8-8-8-7-7-7-7
F---------------------------------------------------------------------
C---9-9-9-9-9-9--11-11-11-11-11-11------------------------------------
G---7-7-7-7-7-7---9--9--9--9--9--9------------------------------------
C---------------------------------------------------------------------

Hazme entender quiero verte desde este momento


No tardas en volver tu sola
Y piensas k estoi bn  --------? en sta part no escucho mui bn las
                                guitarras


D---------------------------------
A?--------------------------------
F---------------------------------
C---9---xxx--9-9------------------
G---7---xxx--7-7------------------
C-------xxx-----------------------
Destrozame aun respiro lento... ...
D---------------------------------------------------------------------
A?--------------------------------10-10-10?10-10-10-10-8-8-8-8-7-7-7-7
F---------------------------------------------------------------------
C---9-9-9-9-9-9--11-11-11-11-11-11------------------------------------
G---7-7-7-7-7-7---9--9--9--9--9--9------------------------------------
C---------------------------------------------------------------------
Destrózame y arráncame de todo lo k soy

D---------------------------------------------------------------------
A?--------------------------------10-10-10?10-10-10-10-8-8-8-8-7-7-7-7
F---------------------------------------------------------------------
C---9-9-9-9-9-9--11-11-11-11-11-11------------------------------------
G---7-7-7-7-7-7---9--9--9--9--9--9------------------------------------
C---------------------------------------------------------------------

Hazme entender quiero verte desde este momento


D------------------------------------------
A?10-10-10?10-10-10-10-8-8-8-8-7-7-7-7-----
F------------------------------------------
C---------------------------------------9--
G---------------------------------------7--
C------------------------------------------
Destrózame





Calificar esta versión:
Aviso: Este fichero es trabajo propio de su transcriptor y representa su interpretación personal de la canción. El material contenido en esta página es para exclusivo uso privado, por lo que se prohibe su reproducción o retransmisión, así como su uso para fines comerciales.
Más versiones de Destrozame, Insite
Destrozame
acordes
Destrozame
tablatura
Descubre más canciones de Insite