Confusion, Insite (acordes)

Autor: rekale | 34410 visualizaciones

asus2bsus4csosm7e


 Confusion
Insite


Intro: C#m7  Asus2   E   Bsus4

Riff 2 E intro

  C#m7       Asus2    E         Bsus4
E ---------|---------|---------|------------|
B --5-4-5--|--5-4-5--|--5-4-5--|--5-4-5/7-7-|
G -4-----4-|-4-----4-|-4-----4-|-4----------|
D ---------|---------|---------|------------|
A ---------|---------|---------|------------|
E ---------|---------|---------|------------|

Riff 1

E -------|----------|---------|---------|
B -9-9-9-|-10-10-10-|-12-10-9-|-12-10-9-|
G -------|----------|---------|---------|
D -------|----------|---------|---------|
A -------|----------|---------|---------|
E -------|----------|---------|---------|

Acordes      EADGBe

Bsus4[no5]   xx2400
E[no3]       x22400
G#m/5+       4x2400
Esus2/C#     x44400

Verso acompañado del riff 1

C#m7        Asus2       E
   Solo han pasado unas horas
   Bsus4
Me siento morir
C#m7       Asus2       E
   Es tan difícil el estar así
   Bsus4      C#m7
En esta situación cuando hay
   Asus2         E
Por medio tanta confusión
  Bsus4
Y me da igual decir adiós


Coro:
E              Bsus4
  Quien iba pensar
    E                Bsus4
Que me empezaría a enamorar
    E             Bsus4[no5]
Muy Fácil de ti [fácil de ti]
   E[no3]           Bsus4            C#m7
Ojala te sintieras igual ojala me quisieras igual

Riff 2

  C#m7       Asus2    E         Bsus4
E ---------|---------|---------|------------|
B --5-4-5--|--5-4-5--|--5-4-5--|--5-4-5/7-7-|
G -4-----4-|-4-----4-|-4-----4-|-4----------|
D ---------|---------|---------|------------|
A ---------|---------|---------|------------|
E ---------|---------|---------|------------|

  C#m7       Asus2     E         Bsus4
E ---------|---------|---------|------------|
B --5-4-5--|--5-4-5--|--5-4-5--|--5-4-5/7-7-|
G -4-----4-|-4-----4-|-4-----4-|-4----------|
D ---------|---------|---------|------------|
A ---------|---------|---------|------------|
E ---------|---------|---------|------------|

Verso y riff 2

C#m7      Asus2      E           Bsus4
     Despertado nuevamente en mi hermosa ilusión
Verso y Riff 1
      C#m7         Asus2       Bsus4
De querer vivir querer seguir enamorándome de ti

Coro:

E              Bsus4
  Quien iba pensar
    E                Bsus4
Que me empezaría a enamorar
    E             Bsus4[no5]
Muy Fácil de ti [fácil de ti]
   E[no3]           Bsus4
Ojala te sintieras igual ojala me

E            G#m/5+
Voy volando imaginando
    E[no3]       Bsus4
Los últimos besos y

                    harmonic
E -------------------12--
B –--------------------12--
G -----------------------12--
D -------------------------12--
A ---------------------------12--
E -----------------------------12--

   E      Asus2
Caricias [caricias]
E[no3]  Bsus4
Besos caricias

C#m7        Asus2
  Maldita confusión
 Esus2/C#          Bsus4
Habrá sido esta mi última tarde
       E       C#m7
En tus brazos nouno
 





Calificar esta versión:
Aviso: Este fichero es trabajo propio de su transcriptor y representa su interpretación personal de la canción. El material contenido en esta página es para exclusivo uso privado, por lo que se prohibe su reproducción o retransmisión, así como su uso para fines comerciales.
Más versiones de Confusion, Insite
Confusion
acordes
Confusion (ver 2)
acordes
Descubre más canciones de Insite