Golpe De Suerte, Inmigrantes (tablatura)

Autor: moya_06 | 33123 visualizaciones

Inmigrantes: Golpe de suerte


Intro:   X  4

E/-2-2-2-0-2-2-2-0-2-2-2-0-2-0-2-0—-5-5-5-0-5-5-5-0-5-5-5-0-5-0-5-0
A/-----------------------------------------------------------------
D/-----------------------------------------------------------------
G/-----------------------------------------------------------------
B/-----------------------------------------------------------------
E/-----------------------------------------------------------------

Lo que sigue se hace  X  2

E/-----------------------------------------------------------------
A/-----------------------------------------------------------------
  D/------------------------------------------------------------------
G/-11-11-11-11-11-11-11—13-13-13-13-13-13—9-9—9-9-9-9--------------
B/-----------------------------------------------------------------
E/-----------------------------------------------------------------


E/-----------------------------------------------------------------
A/-----------------------------------------------------------------
D/-11-11-11---11---------------------------------------------------
G/----------9----9-------------------------------------------------
B/-----------------------------------------------------------------
E/-----------------------------------------------------------------


Versos

E/-2-2-2-0-2-2-2-0-2-2-2-0-2-2-2-0-5-5-5-0-5-5-5-0-5-5-5-0-5-5-5-0-

Sigue así

A/-4-4-4-0-4-4-4-0-4-4-4-0-4-4-4-0-7-7-7-0-7-7-7-0-7-7-7-0-7-------



Esto no es rock, esto no es pop
Hoy tengo tanto tango amor…
Quiero a las dos, tengo a las dos
Pero a las tres mejor me voy…

Re
No tengo ganas de despertarme hoy
FA#m
Desde mi cama se ve mucho mejor
X1        X2     X3   X4    C#m         Mi
No tengo ganas de decaerme y perderme…
Re                          La
La puerta ya cerrándose y el rito acelerándonos
Re                        C#m
El aire del ventilador nos da el insomnio y el calor
Re                Mí
Entonces voy por más…


Vos te pensas que es descontrol
Todo lo que hago es con amor
No me crees pero para vos
Estoy al borde de llover…

Re
No tengo ganas de despertarme hoy
Fa#m
Desde mi cama se ve mucho mejor
X1        X2     X3    X4   C#m          Mi
No tengo ganas de decaerme y perderme…


Re                          La
La puerta ya cerrandose y el rito acelerándonos
Re                         C#m
El aire del ventilador nos da el insomnio y el calor     X 2
Re                 Mí
Y entonces voy por más…


Calificar esta versión:
Aviso: Este fichero es trabajo propio de su transcriptor y representa su interpretación personal de la canción. El material contenido en esta página es para exclusivo uso privado, por lo que se prohibe su reproducción o retransmisión, así como su uso para fines comerciales.
Más versiones de Golpe De Suerte, Inmigrantes
Golpe De Suerte
acordes
Golpe De Suerte
tablatura
Descubre más canciones de Inmigrantes