Solucionando Problemas, Infierno 18 (tablatura)

Autor: alexis_punk_18 | 25144 visualizaciones



intro :
 
 |-------------------------------------|
 |-------------------------------------|
 |-------------------------------------| (x2)
 |-7-7-7-7---4-4-4-4-4-4-4-------------|
 |-7-7-7-7---4-4-4-4-4-4-4-------------|
 |-5-5-5-5---2-2-2-2-2-2-2-------------| 


 |--------------------------------------------------|
 |--------------------------------------------------|
 |---------------------------7-7-7-7-7-7-7-7-7-7----|
 |-7-7-7-7---4-4-4-4-4-4-4---7-7-7-7-7-7-7-7-7-7----|
 |-7-7-7-7---4-4-4-4-4-4-4---5-5-5-5-5-5-5-5-5-5----|
 |-5-5-5-5---2-2-2-2-2-2-2--------------------------|


 |-------------------------------------|
 |-------------------------------------|
 |-------------------------------------| (x2)
 |-7-7-7-7---4-4-4-4-4-4-4-------------|
 |-7-7-7-7---4-4-4-4-4-4-4-------------|
 |-5-5-5-5---2-2-2-2-2-2-2-------------| 


 |--------------------------------------------------|
 |--------------------------------------------------|
 |---------------------------7-7-7-7-7-7-7-7-7-7----|
 |-7-7-7-7---4-4-4-4-4-4-4---7-7-7-7-7-7-7-7-7-7----|
 |-7-7-7-7---4-4-4-4-4-4-4---5-5-5-5-5-5-5-5-5-5----|
 |-5-5-5-5---2-2-2-2-2-2-2--------------------------|
 


 hoy siento como todo se derrumba....
 |---------------------------------------------------|
 |---------------------------------------------------|
 |-------------------------------------7-7-7-7-7-----| (x4)
 |-7-7-7-7-7-7-7-7-7-7---9-9-9-9-9-9---7-7-7-7-7-----| hammer 
 |-7-7-7-7-7-7-7-7-7-7---9-9-9-9-9-9---5-5-5-5-5-----|
 |-5-5-5-5-5-5-5-5-5-5---7-7-7-7-7-7-----------------|


 basta! todo el peso en una sola parte...
 |------------------------------------------|
 |------------------------------------------|
 |-------------------7-7-7-7-7-7-7-7-7-7----|
 |---4-4-4-4-4-4-4---7-7-7-7-7-7-7-7-7-7----|
 |---4-4-4-4-4-4-4---5-5-5-5-5-5-5-5-5-5----|
 |---2-2-2-2-2-2-2--------------------------|


 basta! necesito relajarme , comenzar
 |------------------------------------------|
 |------------------------------------------|
 |-------------------7-7-7-7-7---9-9-9-9-9--|
 |---4-4-4-4-4-4-4---7-7-7-7-7---9-9-9-9-9--|
 |---4-4-4-4-4-4-4---5-5-5-5-5---7-7-7-7-7--|
 |---2-2-2-2-2-2-2--------------------------|



  solucionando problemas dame.....
 |------------------------------------------|
 |------------------------------------------|
 |----------9--------11--------7------------| (x2)
 |-7--------9-(x10)--11-(x10)--7-(x10)------|
 |-7-(x10)--7--------9---------5------------|
 |-5----------------------------------------|



 me alejo de lo que me hace mal.... 
 |---------------------------------------------------|
 |---------------------------------------------------|
 |-------------------------------------7-7-7-7-7-----| (x4)
 |-7-7-7-7-7-7-7-7-7-7---9-9-9-9-9-9---7-7-7-7-7-----| hammer 
 |-7-7-7-7-7-7-7-7-7-7---9-9-9-9-9-9---5-5-5-5-5-----|
 |-5-5-5-5-5-5-5-5-5-5---7-7-7-7-7-7-----------------|


 
 basta! todo el peso en una sola parte...
 |------------------------------------------|
 |------------------------------------------|
 |-------------------7-7-7-7-7-7-7-7-7-7----|
 |---4-4-4-4-4-4-4---7-7-7-7-7-7-7-7-7-7----|
 |---4-4-4-4-4-4-4---5-5-5-5-5-5-5-5-5-5----|
 |---2-2-2-2-2-2-2--------------------------|


 basta! necesito relajarme , comenzar
 |------------------------------------------|
 |------------------------------------------|
 |-------------------7-7-7-7-7---9-9-9-9-9--|
 |---4-4-4-4-4-4-4---7-7-7-7-7---9-9-9-9-9--|
 |---4-4-4-4-4-4-4---5-5-5-5-5---7-7-7-7-7--|
 |---2-2-2-2-2-2-2--------------------------|



  solucionando problemas dame.....
 |------------------------------------------|
 |------------------------------------------|
 |----------9--------11--------7------------| (x2)
 |-7--------9-(x10)--11-(x10)--7-(x10)------|
 |-7-(x10)--7--------9---------5------------|
 |-5----------------------------------------|



 |------------------------------------------|
 |------------------------------------------|
 |------------------------------------------| (x2)
 |-4-------2-------4-------7----------------|
 |-4-(x6)--2-(x6)--4-(x6)--7-(x6)-----------|
 |-2-------0-------2-------5----------------|



  solucionando problemas dame.....
 |------------------------------------------|
 |------------------------------------------|
 |----------9--------11--------7------------| 
 |-7--------9-(x10)--11-(x10)--7-(x10)------|
 |-7-(x10)--7--------9---------5------------|
 |-5----------------------------------------|


  solucionando problemas 
 |----------|
 |----------|
 |----------| 
 |-7--------|
 |-7-(x10)--|
 |-5--------|

  dame alguna respuesta 

  no caigo en tu juego ....
 |-------------------------|
 |-------------------------|
 |--11--------7------------| 
 |--11-(x10)--7-(x10)------|
 |---9--------5------------|
 |-------------------------|


solucionando problemas 
dame alguna respuesta
no caigo en tu juego 
no juges con migo

fin!!!!


bueno alto tema jajaja
les dejo mi eme : [email protected]





Comentarios del colaborador: hghghghg

Calificar esta versión:
Aviso: Este fichero es trabajo propio de su transcriptor y representa su interpretación personal de la canción. El material contenido en esta página es para exclusivo uso privado, por lo que se prohibe su reproducción o retransmisión, así como su uso para fines comerciales.
Más versiones de Solucionando Problemas, Infierno 18
Solucionando Problemas
acordes
Solucionando Problemas
tablatura
Descubre más canciones de Infierno 18