Puedo Ver, Infierno 18 (acordes)

Autor: Fiir | 17432 visualizaciones

a5b5e5fsus


E-6h7777777-6h77--6h7777—----
B-6h7777777-6h77--6h7777—----
G----------------------------   X3
D----------------------------
A----------------------------
E----------------------------

E-1212121212121212121212121212
B-1212121212121212121212121212
G-----------------------------
D-----------------------------
A-----------------------------
E-----------------------------

ESTROFA 1 :

B5
Te vi ahi, estabas sola
B5
y me acerque a hablar.
B5
me viste venir,bese tus labios
B5
y todo fue magia.


B5          Fsus
puedo ver lo que hare
  A5     E5 [ palm muting ]
contigo ohh ohh!
B5         Fsus
quiero ser el que este
   A5   E5  [palm muting  ]
contigo ohh ohh!

INTRO:  X2

B5
muestrame, el fiel camino
B5
para poder llegar a ti!!!
B5
y decidi, despues de todo
B5
que hoy no se ira jamas

no terminara ...

Puente:B5


ESTRIBILLO





E----------------------------------
B---0-----0------0-----0-----------
G-----4-----4------4-----4---------
D----------------------------------
A-2-----2------4-----4-------------
E----------------------------------

E----------------------------------
B----0-----0------0-----0----------
G------4-----4------4-----4--------
D--2-----2------4-----4------------
A--------------//////////////------
E-------------//////////////-------


Antes de que termine hace un slide con la pua [///]

ESTRIBILLO

INTRO Y ESTRIBILLO: UOHHHHHH! Termina en A 
 





Calificar esta versión:
Aviso: Este fichero es trabajo propio de su transcriptor y representa su interpretación personal de la canción. El material contenido en esta página es para exclusivo uso privado, por lo que se prohibe su reproducción o retransmisión, así como su uso para fines comerciales.
Más versiones de Puedo Ver, Infierno 18
Puedo Ver
acordes
Puedo Ver
bajo
Descubre más canciones de Infierno 18