A Tu Lado, Infierno 18 (tablatura)

Autor: xxblackxpinkxx | 15314 visualizaciones



                       "A tu lado", Infierno 18

_____________________________
Transcripto por: Sebastián Ara.
Buenos Aires, Argentina, 2008 Dic.
Email msn: [email protected]
También lo subi a LaCuerda.net
______________________________



INTRO DEL VIDEO MUSICAL:
e|-0-0--3-3--5-5--7/10-10--
B|-------------------------
G|-------------------------
D|-------------------------
A|-------------------------
E|-------------------------
[Repite]

INTRO DE LA CANCIÓN:
e|7------7-----5-----5-------------
B|--8------8-----8-----8-----------
G|----7------7-----7-----7---------
D|---------------------------------
A|---------------------------------
E|---------------------------------

e|7------7-------8------8---------
B|--8------8-------8------8-------
G|----7------7-------7------7-----
D|--------------------------------
A|--------------------------------
E|--------------------------------

[Repite la INTRO DE LA CANCIÓN una vez más]


Break:
e|----------------
B|-3-3-3-x-3-3-3--
G|-4-4-4-x-4-4-4--
D|-5-5-5-x-5-5-5--
A|-5-5-5-x-5-5-5--
E|----------------
[repite una vez más]

Versos:
e|----------3------------------3---------------------------
B|----------3------------------3---------------------------
G|----------4------------------5---------------------------
D|----------5------------------5---------------------------
A|----------5------------------3---------------------------
E|----------3------------------3---------------------------
   "Hoy me siento solo...  sin nadie quien levantarme..." etc...
[usa esos dos acordes en todos los versos, con ese ritmo]

Break 2:
e|---------------
B|---------------
G|---------------
D|5-x-5-x-5-x-5--
A|5-x-5-x-5-x-5--
E|3-x-3-x-3-x-3--

e|---------------
B|---------------
G|---------------
D|5-x-5-x-5-x-5--
A|5-x-5-x-5-x-5--
E|3-x-3-x-3-x-3--

Versos:
e|----------3-----------------------3---------------------------
B|----------3-----------------------3---------------------------
G|----------4-----------------------5---------------------------
D|----------5-----------------------5---------------------------
A|----------5-----------------------3---------------------------
E|----------3-----------------------3---------------------------
    "Recuerdo el momento..en el que nos conocimos..." etc

Break 3:
e|---------------
B|---------------
G|---------------
D|5-x-5-x-5-x-5--
A|5-x-5-x-5-x-5--
E|3-x-3-x-3-x-3--


Pre-Estribillo:
e|---------------------------------------------------------------------------|
B|---------------------------------------------------------------------------|
G|---------------------------------------------------------------------------|
D|-------4----------------------------5--------------------------------------|
A|-------4----------------------------5--------------------------------------|
E|-------2----------------------------3--------------------------------------|
  "No me pidas que te explique, no pretendo que me entiendas"

e|---------------------------------------------------------------------------|
B|---------------------------------------------------------------------------|
G|---------------------------------------------------------------------------|
D|-------4----------------------------5--------------------------------------|
A|-------4----------------------------5--------------------------------------|
E|-------2----------------------------3--------------------------------------|
  "No me pidas que te explique, no pretendo que me entiendas"


ESTRIBILLO:
e|----------3------------------0-----------
B|----------3------------------3-----------
G|-x--------0------------------2-----------
D|-x--------0------------------0-----------
A|-x--------2------------------0-----------
E|-x--------3------------------2-----------
     "Lo unico que quiero es estar a tu lado..."

e|-------0-----------------------2-------
B|-------3-----------------------3-------
G|-------0-----------------------2-------
D|-------2-----------------------0-------
A|-------3-------------------------------
E|-------3-------------------------------
   "Y dormir contigo, para que soñemos juntos.."
[repite con la misma progresión de acordes]

PUENTE:
e|---------------
B|---------------
G|---------------
D|5-x-5-x-5-x-5--
A|5-x-5-x-5-x-5--
E|3-x-3-x-3-x-3--
[repite]

e|-----------------------------
B|-----------------------------
G|-----------------------------
D|-------4-4-4-4/7-7-7/5-5-5-5-
A|-5-5-5-2-2-2-2/5-5-5/3-3-3-3-
E|-3-3-3-----------------------
[repite muchas veces]

e|------------------------
B|------------------------
G|-------4-4-4-4-----/7!--
D|-------4-4-4-4-----/7!--
A|-5-5-5-2-2-2-2-...-/5!--
E|-3-3-3------------------
[termina el puente con esto]


ESTRIBILLO:
e|----------3------------------0-----------
B|----------3------------------3-----------
G|-x--------0------------------2-----------
D|-x--------0------------------0-----------
A|-x--------2------------------0-----------
E|-x--------3------------------2-----------
     "Lo unico que quiero es estar a tu lado..."

e|-------0-----------------------2-------
B|-------3-----------------------3-------
G|-------0-----------------------2-------
D|-------2-----------------------0-------
A|-------3-------------------------------
E|-------3-------------------------------
   "Y dormir contigo, para que soñemos juntos.."
[repite con la misma progresión de acordes]

ESTRIBILLO FINAL, UN TONO MÁS ARRIBA:
e|--------------------------------------------
B|--------------------------------------------
G|-----------2--------------------------------
D|-----------2------------------6-------------
A|-----------0------------------6-------------
E|------------------------------4-------------
      "Lo único que quiero es estar a tu lado..."

e|------------------------------------------
B|------------------------------------------
G|--------------7----------------9----------
D|--------------7----------------9----------
A|--------------5----------------7----------
E|-------------------------------0----------
         "Y dormir contigo, para que soñemos juntos..."

Finaliza con:
e---
B---
G-2-
D-2-
A-0-
E---





Calificar esta versión:
Aviso: Este fichero es trabajo propio de su transcriptor y representa su interpretación personal de la canción. El material contenido en esta página es para exclusivo uso privado, por lo que se prohibe su reproducción o retransmisión, así como su uso para fines comerciales.
Más versiones de A Tu Lado, Infierno 18
A Tu Lado
acordes
A Tu Lado
tablatura
Descubre más canciones de Infierno 18