Becoming Insane, Infected Mushroom (tablatura) (ver 2)

Autor: jose carlosxx33 | 29518 visualizaciones

------------------------------------------------
------------------------------------------------
------------------------------------------------
---------9---9--10---10-----7---7---10-----9----
---------7---7--8----8------5---5---8------7----
------------------------------------------------


------------------------------------------------
------------------------------------------------
-------------9---8-------------------------8----
-9--9-10-10--7---6---9--------------------------
-7--7-8--8-----------7--------------------------
------------------------------------------------

Comentarios del colaborador: no la copie!

Calificar esta versión:
Aviso: Este fichero es trabajo propio de su transcriptor y representa su interpretación personal de la canción. El material contenido en esta página es para exclusivo uso privado, por lo que se prohibe su reproducción o retransmisión, así como su uso para fines comerciales.
Más versiones de Becoming Insane, Infected Mushroom
Becoming Insane
tablatura
Becoming Insane (ver 2)
tablatura
Descubre más canciones de Infected Mushroom