Flight 956, Indio Solari (tablatura) (ver 2)

Autor: Anónimo | 29434 visualizaciones

INTRO:

Guitarra 1:   C5 - D5


Guitarra 2:

E -------3---3-5-3-5-3---------
B -5-3-5----------------5------
G --------------------------5--
D -----------------------------
A -----------------------------
E -----------------------------


Guitarra 3:

e ----------------------------------------------------
B ----------------------------------------------------
G -5/7/9/10/12/10/9/7-5/7/9-----5/7/9/10/12/10-9---9--
D ----------------------------------------------------
A -3/5/7/8//10/8//7/5-3/5/7-----3/5/7/8//10/8--7---7--
E ----------------------------------------------------



Versos:  C - F


   C     F        C       F
     Parece que en el final
        C        F       C    F
     No me saldré con la mía, mi amor
   C       F       C        F     C
    (debería chequear mi contestador)

     Flight 956...voy a extrañar
    (tu belleza es como un resplandor!)


(Arreglo sobre “Flight 956..voy a extrañar”,
escuchar el punteo - va con la voz del Indio)

e -888/777/555/333/111-000-11/333---------------------
B ------------------------------------------------
G ------------------------------------------------


     Estoy tan cansado
     que no tengo fuerzas para discutir
     es tan triste ésta vez...que no puedo hablar

     Flight 956...el tiempo dirá
     yo sé que vos vas a regresar!

    F         Em               Am
     Disculpa mis actos de hampón
    F                  Em                G
     Siempre hay quilombito en un cielo de dos
             F     Em       Am
     y nunca hay terreno sagrado, amor
           F    Em                 G
     Es difícil no ser injusto con vos...

     Cuando escapas en tu…

     Flight 956, intento reír
     Dios no está en los detalles de hoy!

     Será un melodrama vulgar?
     Pasados dos meses nos consolarán?
     Llorarás con un ojo
     y con el otro te reirás

     Flight 956...voy a extrañar
    (tu belleza es como un resplandor!)

E -------3---3-5-3-5-3---------
B -5-3-5----------------5------
G --------------------------5--
D -----------------------------
A -----------------------------
E -----------------------------



Final: C5 - D5

E ------------------------------
B ------------------------------
G -5~-5-4-2---------------------
D ----------5~-3-2--------------
A -----------------5-3~3~~------
E ------------------------------


e -------------------------------------3~~--3~~--3~~--3~~--(2º Escala de DO)
B -------------------------3--5--6--3----------------------
G -------------------2-4-5---------------------------------
D -------------2-3-5---------------------------------------
A -------2-3-5---------------------------------------------
E -1-2-5---------------------------------------------------

saludos para todos los ricoteros, desde Puerto Madryn - Chubut
Calificar esta versión:
Aviso: Este fichero es trabajo propio de su transcriptor y representa su interpretación personal de la canción. El material contenido en esta página es para exclusivo uso privado, por lo que se prohibe su reproducción o retransmisión, así como su uso para fines comerciales.
Más versiones de Flight 956, Indio Solari
Flight 956
acordes
Flight 956
tablatura
Flight 956 (ver 2)
tablatura
Descubre más canciones de Indio Solari