Drive, Incubus (bajo)

Autor: marishiu | 40995 visualizaciones



intro
G|--------------------------|
D|--------------------------|
A|-------------3333---------|
E|-0-0-3-0-3-5------5-5-5-3-|
puente
G|---------------|-----------------|--------------------|
D|---------------|-----------------|--------------------|
A|-------3-3-----|-------3-3-------|-------3-3-3--------|
E|-0-0-3-----5-0-|-0-0-3-----5p3-0-|-0-0-3------h5-5-p3-|

 "It's taken me before, and it seems to have a vague..."
G|-------------|
D|-------------|
A|-3-3-3-------|
E|-------5-5-5-|

ultimo chorus
G|-------|
D|-77-77-|
A|-------|
E|-------|





Calificar esta versión:
Aviso: Este fichero es trabajo propio de su transcriptor y representa su interpretación personal de la canción. El material contenido en esta página es para exclusivo uso privado, por lo que se prohibe su reproducción o retransmisión, así como su uso para fines comerciales.
Más versiones de Drive, Incubus
Drive
tablatura
Drive
bajo
Descubre más canciones de Incubus