Last Man Standing, Hung Jury (tablatura) (ver 2)

Autor: botack | 38377 visualizaciones



INTRO:

e------------------------------------------------------|
B------------------------------------------------------|
G--------------------7---------------5-----------------|
D--------------------7---------------5-----------------|
A--------------------5-5-5-5-5-5-5-5-3-3-3-3-3-3-3-3-3-|
E--3-3-3-3-3-3-3-3-3-----------------------------------|

e--------------------------------------------------------|
B--------------------------------------------------------|
G--------------------------------------------------------|
D-5-------------------5-----------------7----------------|
A-5-------------------5-----------------7----------------|
E-3-3-3-3-3-3-3-3-3-3-3-3-3-3-3-3-3-3-3-5-5-5-5-5-5-5-5-5|

e-------------------|
B-------------------|
G-5-----------------|
D-5-----------------|
A-3-3-3-3-3-3-3-3-3-|
E-------------------|
 

CHORUS:
e----------------------------------------------------------------
B----------------------------------------------------------------
G-7-7-7-7-7-7-7-7-----------------5-5-5-5-5-5-5-5----------------
D-7-7-7-7-7-7-7-7-8-8-8-8-8-8-8-8-5-5-5-5-5-5-5-5-5-5-5-5-5-5-5-5
A-5-5-5-5-5-5-5-5-8-8-8-8-8-8-8-8-3-3-3-3-3-3-3-3-5-5-5-5-5-5-5-5
E-----------------6-6-6-6-6-6-6-6-----------------3-3-3-3-3-3-3-3


e----------------------------------------------------------------
B----------------------------------------------------------------
G-7-7-7-7-7-7-7-7-----------------5-5-5-5-5-5-5-5----------------
D-7-7-7-7-7-7-7-7-8-8-8-8-8-8-8-8-5-5-5-5-5-5-5-5-5-5-5-5-5-5-5-5
A-5-5-5-5-5-5-5-5-8-8-8-8-8-8-8-8-3-3-3-3-3-3-3-3-5-5-5-5-5-5-5-5
E-----------------6-6-6-6-6-6-6-6-----------------3-3-3-3-3-3-3-3






 SOLO

e-----------------------------------|
B-----------------------------------|
G-7-7-7-7----------5-5-5-5----------|
D-7-7-7-7--8-6-6-6-5-5-5-5--5-5-5-5-|
A-5-5-5-5--8-6-6-6-3-3-3-3--5-5-5-5-|
E----------6-6-6-6----------3-3-3-3-|

e-----------------------------------|
B-----------------------------------|
G-7-7-7-7----------5-5-5-5----------|
D-7-7-7-7--8-6-6-6-5-5-5-5--5-5-5-5-|
A-5-5-5-5--8-6-6-6-3-3-3-3--5-5-5-5-|
E----------6-6-6-6----------3-3-3-3-|





Comentarios del colaborador: ES LA MEJOR VERSION QUE EXISTE DE ESTA CANCION MUY BUEN INTRO Y TODO ECEPTO PORQUE NO ESTA COMPLETA YA TENGO LA SOLUCION DE SUS PROBLEMAS GENTE QUE NO ENCONTRABA ESTA TABLATURA

Calificar esta versión:
Aviso: Este fichero es trabajo propio de su transcriptor y representa su interpretación personal de la canción. El material contenido en esta página es para exclusivo uso privado, por lo que se prohibe su reproducción o retransmisión, así como su uso para fines comerciales.
Más versiones de Last Man Standing, Hung Jury
Last Man Standing
tablatura
Last Man Standing (ver 2)
tablatura
Descubre más canciones de Hung Jury