Se Acabaron Las Lágrimas, Huecco (tablatura)

Autor: Anónimo | 35979 visualizaciones



  Am       Am/G     D/F#     F        Am       Am/G     D/F#     F
e|-----------------|-----------------|-----------------|-----------------|
B|------1------1---|------3-------1--|------1-------1--|------3----1-----|
G|----2--2---2--2--|----2--2----2--2-|----2--2----2--2-|----2--2---2-----|
D|---2------2------|---0-------3-----|---2-------2-----|---0-------3-----|
A|-0---------------|-----------------|-0---------------|-----------------|
E|---------3-------|-2-------1-------|---------3-------|-2-------1-------|

  Am       Am/G     D/F#     F        Am       Am/G     D/F#     F
e|-----------------|-----------------|-----------------|-----------------|
B|------1------1---|------3-------1--|------1-------1--|------3-------1--|
G|----2--2---2--2--|----2--2----2--2-|----2--2----2--2-|----2--2----2--2-|
D|---2------2------|---0-------3-----|---2-------2-----|---0-------3-----|
A|-0---------------|-----------------|-0---------------|-----------------|
E|---------3-------|-2-------1-------|---------3-------|-2-------1-------|
  Cuando sientes frio en la mirada,
  cuando alguien ha roto tu sonrisa de cristal

  Am       Am/G     D/F#     F        Am       Am/G     D/F#     F
e|-----------------|-----------------|-----------------|-----------------|
B|------1------1---|------3-------1--|------1-------1--|------3----1-----|
G|----2--2---2--2--|----2--2----2--2-|----2--2----2--2-|----2--2---2-----|
D|---2------2------|---0-------3-----|---2-------2-----|---0-------3-----|
A|-0---------------|-----------------|-0---------------|-----------------|
E|---------3-------|-2-------1-------|---------3-------|-2-------1-------|
  y tu carita de porcelana se acuerda de su mano, mano de metal.

  C        G        Am                C        G        Am
e|-----------------|-----------------|-----------------|-----------------|
B|------1------3---|------1-------1--|------1-------3--|------1-------1--|
G|----0--0---0--0--|----2--2----2--2-|----0--0----0--0-|----2--2----2--2-|
D|---2------0------|---2-------2-----|---2-------0-----|---2-------2-----|
A|-3---------------|-0-------0-------|-3---------------|-0-------0-------|
E|---------3-------|-----------------|----------3------|-----------------|
  Es hora de empezar a andar, se acabaron las lágrimas.

  C        G        Am                C        G
e|-----------------|-----------------|-----------------|
B|------1------3---|------1-------1--|------1-----3----|
G|----0--0---0--0--|----2--2----2--2-|----0--0----0----|
D|---2------0------|---2-------2-----|---2--------0----|
A|-3---------------|-0-------0-------|-3---------------|
E|---------3-------|-----------------|----------3------|
  Es hora de empezar a andar, rompe tu jaula


  Am       Am/G     D/F#     F        Am       Am/G     D/F#     F
e|-----------------|-----------------|-----------------|-----------------|
B|------1------1---|------3-------1--|------1-------1--|------3-------1--|
G|----2--2---2--2--|----2--2----2--2-|----2--2----2--2-|----2--2----2--2-|
D|---2------2------|---0-------3-----|---2-------2-----|---0-------3-----|
A|-0---------------|-----------------|-0---------------|-----------------|
E|---------3-------|-2-------1-------|---------3-------|-2-------1-------|
  Cuatro primaveras calladas, las rosas secas ya no saben perfumar

  Am       Am/G     D/F#     F        Am       Am/G     D/F#     F
e|-----------------|-----------------|-----------------|-----------------|
B|------1------1---|------3-------1--|------1-------1--|------3----1-----|
G|----2--2---2--2--|----2--2----2--2-|----2--2----2--2-|----2--2---2-----|
D|---2------2------|---0-------3-----|---2-------2-----|---0-------3-----|
A|-0---------------|-----------------|-0---------------|-----------------|
E|---------3-------|-2-------1-------|---------3-------|-2-------1-------|
  Sientes las espinas que se clavan pinchando bien adentro donde duele más.

  C        G        Am                C        G        Am
e|-----------------|-----------------|-----------------|-----------------|
B|------1------3---|------1-------1--|------1-------3--|------1-------1--|
G|----0--0---0--0--|----2--2----2--2-|----0--0----0--0-|----2--2----2--2-|
D|---2------0------|---2-------2-----|---2-------0-----|---2-------2-----|
A|-3---------------|-0-------0-------|-3---------------|-0-------0-------|
E|---------3-------|-----------------|----------3------|-----------------|
  Es hora de empezar a andar, se acabaron las lágrimas.

  C        G        Am                C        G
e|-----------------|-----------------|-----------------|---------------X-|
B|------1------3---|------1-------1--|------1-----3----|---------------X-|
G|----0--0---0--0--|----2--2----2--2-|----0--0----0----|---------------X-|
D|---2------0------|---2-------2-----|---2--------0----|---------------X-|
A|-3---------------|-0-------0-------|-3---------------|---------------X-|
E|---------3-------|-----------------|----------3------|---------------X-|
  Es hora de empezar a andar, rompe tu jaula ya         ¡mira!

  C        G        Am       E        F        C        G
e|-----------------|---55-55---44-44-|---11-11---00-00-|-----------------|
B|----1-------0----|---55-55---55-55-|---11-11---11-11-|-0-0X-0X-0X-0X---|
G|------0-------0--|---55-55---44-44-|---22-22---00-00-|-0-0X-0X-0X-0X---|
D|---2---2---0---0-|---------2-------|-3---------------|-0-0X-0X-0X-0X---|
A|-3---------------|-----------------|---------3-------|-----------------|
E|---------3-------|-5---------------|-----------------|-----------------|
  Escapa que la vida se acaba, que los sueños se gastan,
  los minutos se marchan.

  C        G        Am       E        F        C        G
e|---00-00---------|---55-55---44-44-|---11-11---00-00-|-----------------|
B|---11-11---00-00-|---55-55---55-55-|---11-11---11-11-|-0-0X-0X-0X-0X---|
G|---00-00---00-00-|---55-55---44-44-|---22-22---00-00-|-0-0X-0X-0X-0X---|
D|-----------00-00-|---------2-------|-3---------------|-0-0X-0X-0X-0X---|
A|-3---------------|-----------------|---------3-------|-----------------|
E|---------3-------|-5---------------|-----------------|-----------------|
  Salta que las llamas te abrasan, los momentos se pasan y se
  te rompe el alma.

  Am       Am/G     D/F#     F        Am       Am/G     D/F#     F
e|-----------------|-----------------|-----------------|-----------------|
B|------1------1---|------3-------1--|------1-------1--|------3----1-----|
G|----2--2---2--2--|----2--2----2--2-|----2--2----2--2-|----2--2---2-----|
D|---2------2------|---0-------3-----|---2-------2-----|---0-------3-----|
A|-0---------------|-----------------|-0---------------|-----------------|
E|---------3-------|-2-------1-------|---------3-------|-2-------1-------|
  Ay el alma...

   a aprtir de aqui es 2da guitarra
  Am       Am/G     D/F#     F        Am       Am/G     D/F#     F
e|-5-------3-------|-2-------1-------|-5-------3-------|-2-------1-------|
B|-----------------|-----------------|-----------------|-----------------|
G|-----------------|-----------------|-----------------|-----------------|
D|-----------------|-----------------|-----------------|-----------------|
A|-----------------|-----------------|-----------------|-----------------|
E|-----------------|-----------------|-----------------|-----------------|
  cuando sientes que nunca lo extrañas,
  y la lluvia cae castigando la ciudad

  Am       Am/G     D/F#     F        Am       Am/G     D/F#     F
e|-5-------7-------|-8-------7-------|-5-------3-------|-2-------1-------|
B|-----------------|-----------------|-----------------|-----------------|
G|-----------------|-----------------|-----------------|-----------------|
D|-----------------|-----------------|-----------------|-----------------|
A|-----------------|-----------------|-----------------|-----------------|
E|-----------------|-----------------|-----------------|-----------------|
  que las gotas no calan tu alma sus barcas en tus ojos
  y tus escudos no podran remar


e|-----------------|----5----5-------|-----------------|-----------------|
B|-----------------|-5-----5---------|-----------------|-----------------|
G|-----------------|-----------------|-----------------|--b4b2b4b5-------|
D|-----------------|-----------------|-----------------|-----------------|
A|-----------------|-----------------|-----------------|-----------------|
E|-----------------|-----------------|-----------------|-----------------|
  de nada vale ya llorar, se acabaron las lagrimas


e|-----------------|----5----5-------|-5----7---8------|-----------------|
B|-----------------|-5-----5---------|-----------------|-----------------|
G|-----------------|-----------------|-----------------|-----------------|
D|-----------------|-----------------|-----------------|-----------------|
A|-----------------|-----------------|-----------------|-----------------|
E|-----------------|-----------------|-----------------|-----------------|
  sientes que ya no hay marcha atras rompe tu jaula ya

(estribillo igual que el anterior)

A            E                 F#m
y siente la llamada de la libertad
            D                     A
rompe las cadenas que te hacen llorar
            E                    F#m
corretela, monta y no lo pienses mas
D                 A
salta, rie, baila

             E                 F#m
y siente la llamada de la libertad
            D                     A
rompe las cadenas que te hacen llorar
            E                    F#m
corretela, monta y no lo pienses mas
D                 A
salta, rie, baila

NC
escapa que la vida se acaba, que los sueños se gastan,
los minutos se marchan
A               E        F#m         C#          D       A
salta que las llamas te abrasan, los momentos se pasan y se
            E
te rompe el alma
uai
A             E        F#m           C#        D
escapa que la vida se acaba, que los sueños se gastan,
      A        E
los minutos se marchan
A               E        F#m         C#          D       A
salta que las llamas te abrasan, los momentos se pasan y se
            E
te rompe el alma

A - E - F#m - C# - D - A - E
A - E - F#m - C# - D - A - E
uooooooooh
A - E - F#m - C# - D - A - E
uooooooooooh

A               E        F#m         C#          D       A
salta que las llamas te abrasan, los momentos se pasan y se
            E                      A
te rompe el alma, el alma, el alma





Calificar esta versión:
Aviso: Este fichero es trabajo propio de su transcriptor y representa su interpretación personal de la canción. El material contenido en esta página es para exclusivo uso privado, por lo que se prohibe su reproducción o retransmisión, así como su uso para fines comerciales.
Más versiones de Se Acabaron Las Lágrimas, Huecco
Se Acabaron Las Lágrimas
acordes
Se Acabaron Las Lágrimas
tablatura
Descubre más canciones de Huecco