El Chúcaro, Horacio Guarany (tablatura)

Autor: Anónimo | 16301 visualizaciones



El punteo empieza en el segundo compás
Las letras que aparecen ARRIBA o sobre la tablatura no importan
salvo la v que indica donde comienza el rasgueo,
se explica más abajo.
Luego del primer compás
El rasgueado de acompañamiento
comienza en la tercera corchea
(O sea junto con el 3 de la sexta cuerda).
La clave del buen acompañamiento es que
el rasgueado siempre comienza en la tercera
corchea está marcado con V (brush down)rasgueo hacia abajo.
Ojo que hay compases sin referencias.
Atentos que la tablatura es directa
Hay que ponerle el timing personal.
Las X significan que el sonido suena como
apagándose el oído te va llevando, igualmente:
Compás 2 = 3er casillero 6 cuerda
Compás 3 = 5ta cuerda al aire
Compás 4 = 3er casillero 5 cuerda
Compás 6 = 11er casillero de la primera cuerda
y 12do de la 2da cuerda
Compás 7 = 12do de la 1era cuerda y 13ro de la 2da cuerda
Las L son la ligadura de prolongación que comenzó en la anterior
(ojo no suena, está manteniendo el sonido anterior)
Las S: cuando aparecen, esas notas,  se ligan a la próxima
(slide)







                                v                     v
     E.  S E  E  Q       E   E  E  E  E  E      E  E  E  S S S S E
E||--0---0-0--0--0----|----------------------|----------------------|
B||--0---0-0--0--0----|----------------------|----------------------|
G||--0---0-0--0--0----|----------------------|----------------------|
D||--2---2-2-----2----|----------------------|----------------------|
A||--2-----2----------|--0s--2-----------2s--|--2--x-----------0-2--|
E||-------------------|---------x--0--3------|--------3--0-2-3------|


         v                     v                          v
  E   E  E  E  E  E      E  E  E  S S S S E      E    E   E   E   E  E
----------------------|----------------------|--11s--12---x--14--11--7--|
----------------------|----------------------|--12s--13---x--16--12--8--|
----------------------|----------------------|--------------------------|
--0s--2-----------1s--|--2--------------0-2--|--------------------------|
---------x--0--3------|-----x--0--0-2-3------|--------------------------|
----------------------|----------------------|--------------------------|


         v
  E   E  E  E   E   E      E   Q     E  Q        Q    S E  E  E.
--L-----------------x--|--11--12-----8--7----|--------------------|
--L--10--8--8--10---x--|--12--13----10--8----|--10----7-8---------|
-----11--9--9--11------|---------------------|--11----8-9---------|
-----------------------|---------------------|--------------------|
-----------------------|---------------------|----------------7---|
-----------------------|---------------------|-------------7------|


               v                      v
   S  S  S  S  E   E   E  E      Q    E  E   E   E      E   Q     E  Q
--12-12-12-12-11--14--11--7--|------------------12--|--11--12-----8--7----|
--13-13-13-13-12--16--12--8--|--10----8--8--10--13--|--12--13----10--8----|
-----------------------------|--11----9--9--11------|---------------------|
-----------------------------|----------------------|---------------------|
-----------------------------|----------------------|---------------------|
-----------------------------|----------------------|---------------------|


              v                      v                     v
   S S  S  S  S  Q.     S    S S S S S Q.     S    S S S S S Q
-----8----10----12--------|---------------------|------------0----||
--10---10----12-----------|---------------------|----------0------||
--------------------------|---------------------|------0-2--------||
--------------------------|-------------------0-|--2-4------------||
------------------------0-|--1-2-0--------------|-----------------||
--------------------------|--------3-2-0--------|-----------------||




Duration Legend
---------------
W - whole
H - half
Q - quarter
E - 8th
S - 16th
T - 32nd
X - 64th
. - note dotted
|-n-|  - n-tuplets


Tablature Legend
----------------
L - tied note
x - dead note
g - grace note
(n) - ghost note
> - accentuded note
NH - natural harmonic
AH - artificial harmonic
TH - tapped harmonic
SH - semi harmonic
PH - pitch harmonic
h - hammer on
p - pull off
b - bend
br - bendRelease
pb - preBend
pbr - preBendRelease
brb - bendReleaseBend
n/ - tremolo bar dip
n - tremolo bar dive
-/n - tremolo bar Release up
/n - tremolo bar inverted dip
/n - tremolo bar return
-n - tremolo bar Release down
S - shift slide
s - legato slide
/ -  slide into from below or out of upwards
 -  slide into from above or out of downwards
~ - vibrato
W - wide vibrato
tr - trill
TP - tremolo picking
T - tapping
S - slap
P - pop
< - fade in
^ - brush up
v - brush down





Calificar esta versión:
Aviso: Este fichero es trabajo propio de su transcriptor y representa su interpretación personal de la canción. El material contenido en esta página es para exclusivo uso privado, por lo que se prohibe su reproducción o retransmisión, así como su uso para fines comerciales.
Más versiones de El Chúcaro, Horacio Guarany
El Chùcaro
acordes
El Chúcaro
tablatura
El Chúcaro
teclado
Descubre más canciones de Horacio Guarany