Dos Imanes, Hombres G (tablatura)

Autor: Guardado1 | 29425 visualizaciones



A       D         E         C#m
E|-----------------------------------------|
B|-----------------------------------------|
G|-6-6-------------------------6-7-6-------|
D|-----7-------------9--7-9-7--------9-7-7-|
A|-------7-9-----7-9-----------------------|
E|-----------------------------------------|

   
   A       D         E 
E|----------------------------------------------------------------|
B|----------------------------------------------------------------|
G|-6-6-------------------------6-6-6-6---7-7-7-7---9-9-9-9---11-9-|
D|-----7-------------9--7-9-7-------------------------------------|
A|-------7-9-----7-9----------------------------------------------|
E|----------------------------------------------------------------|

Esto es el final de intro:

   A         D         E      C#m                 A           D      E
E|-------------------------12-12-10-9-10-9-------|---------------------|
B|-------------------8-9-------------------12-10-|-----------------8-9-|
G|-------7-9-11---11-----------------------------|-----7-9-11---11-----|
D|-----------------------------------------------|---------------------|
A|-----------------------------------------------|---------------------|
E|-----------------------------------------------|---------------------|


Este arreglo va al final, tocado por una 2a guitarra:


E|--------------------------------------------|-12-12-10-9-10-9----|
B|-12-12-10-----10--12-12-10-----10--12-12-10-|-----------------12-|
G|-----------11---------------11--------------|--------------------|



E|--------------------------------------------|-10-9----10-9----|
B|-12-12-10-----10--12-12-10-----10--12-12-10-|------10------10-|
G|-----------11---------------11--------------|-----------------|


E|--------------------------------------------|-12-12-10-9-10-9----|
B|-12-12-10-----10--12-12-10-----10--12-12-10-|-----------------12-|
G|-----------11---------------11--------------|--------------------|


E|--------------------------------------------|---------------------------|
B|-12-12-10-----10--12-12-10-----10--12-12-10-|------10------10-----------|
G|-----------11---------------11--------------|-9-11----9-11----9-11--9---|





Calificar esta versión:
Aviso: Este fichero es trabajo propio de su transcriptor y representa su interpretación personal de la canción. El material contenido en esta página es para exclusivo uso privado, por lo que se prohibe su reproducción o retransmisión, así como su uso para fines comerciales.
Más versiones de Dos Imanes, Hombres G
Dos Imanes
acordes
Dos Imanes
tablatura
Descubre más canciones de Hombres G