Dejad Que Las Niñas Se Acerquen A Mi, Hombres G (tablatura)

Autor: Anónimo | 30750 visualizaciones



Lo pongo porque no lo hay correcto, ni completo.
Este es de la versión original.
Dedicada para aquellos que les gusta rodearse de las Bellas Niñas.



El requinto se toca en 3 ocasiones y siempre es el mismo:

 Al Comienzo, En Medio y Al Final.

          FA#                   SI            DO#            FA#
e|----2/9-9—----9/11-9-----9/11-14-----14/16--18-16-14-14-16/9----------|
B|----------------------------------------------------------------------|
G|----------------------------------------------------------------------|

                      SI      DO        FA#
e|----9/11-9-----9/11-2-----2/9-7-------9-----9/11-9--------------------|
B|--------------------------------9-7-9---------------------------------|
G|----------------------------------------------------------------------|

           SI            DO#            FA#                   SI
e|----9/11-14-----14/16--18-16-14-14-16-9-----9/11-9-----9/11-2---------|
B|----------------------------------------------------------------------|
G|----------------------------------------------------------------------|


       DO#        SI         SOL#       FA#            
e|-----9----------7----------4----------2-------------------------------|
B|----------------------------------------------------------------------|
G|----------------------------------------------------------------------|





Calificar esta versión:
Aviso: Este fichero es trabajo propio de su transcriptor y representa su interpretación personal de la canción. El material contenido en esta página es para exclusivo uso privado, por lo que se prohibe su reproducción o retransmisión, así como su uso para fines comerciales.
Más versiones de Dejad Que Las Niñas Se Acerquen A Mi, Hombres G
Dejad Que Las Niñas Se Acerquen A Mi
acordes
Dejad Que Las Niñas Se Acerquen A Mi
tablatura
Dejad Que Las Niñas Se Acerquen A Mi (ver 2)
tablatura
Descubre más canciones de Hombres G