Himno Nacional Del Perú, Himnos Nacionales (bajo)

Autor: Anónimo | 23868 visualizaciones



Coro X2

G--------------/--------/-----------------------------/
D-------10-----/----7---/-----------------------------/
A-10-10----10--/-10---7-/-10-8-7-7------7-10-10-10-10-/
E--------------/--------/----------10-8---------------/


Estrofa

G-------------------------/
D--------------7----------/ X2
A----7-8-8-8-8---10-8-8-7-/
E-10----------------------/

G--------------7----------/-------------/---------------------/
D----7-8-8-8-8---10-8-8-7-/-10-9-7------/---------------------/
A-10----------------------/--------10-7-/-7-10-8-7------------/
E-------------------------/-------------/----------10-8-8-8-8-/

Eso es todo , el ritmo va de acuerdo a la letra .
Mi correo es noon-k@hotmail.com
Voten ps





Calificar esta versión:
Aviso: Este fichero es trabajo propio de su transcriptor y representa su interpretación personal de la canción. El material contenido en esta página es para exclusivo uso privado, por lo que se prohibe su reproducción o retransmisión, así como su uso para fines comerciales.
Más versiones de Himno Nacional Del Perú, Himnos Nacionales
Himno Nacional Del Perú
tablatura
Himno Nacional Del Perú
bajo
Descubre más canciones de Himnos Nacionales