Himno Nacional De Colombia, Himnos Nacionales (tablatura)

Autor: Anónimo | 34165 visualizaciones



Intro:

E|-----------------------------------------------------------|
B|-----------------0--3-0--3333333-5-3-1---------------------|
G|--0-000-----0------------------------------22222----2-222--|
D|------------0----------------------------------------------|
A|-----------------------------------------------------------|
E|-----------------------------------------------------------|

E|-----------------------------------------------------------|
B|-----1--5--1-------3-33-5-3----1-11-3-1---0-000------------|
G|--2--------------------------------------------------------|
D|-2---------------------------------------------------------|
A|-----------------------------------------------------------|
E|-----------------------------------------------------------|

Verso:

E|-----------------------------------------------------------|
B|--0-1-33--5-3-1--3-0----------3----------------------------|
G|---------------------------0-2-4----5-2-0------------------|
D|-----------------------------------------------------------|
A|-----------------------------------------------------------|
E|-----------------------------------------------------------|

E|-----------------------------------------------------------|
B|-0-1-33--5-3-1--3-0-------33--2-3-5---3-5-7----------------|
G|-----------------------------------------------------------|
D|-----------------------------------------------------------|
A|-----------------------------------------------------------|
E|-----------------------------------------------------------|

E|---------------------------3333333-2-0-2-----0000000-------|
B|-7-5-3-1-3-1-0----------------------------0----------3-2-3—|
G|------------------0-00000----------------------------------|
D|-----------------------------------------------------------|
A|-----------------------------------------------------------|
E|-----------------------------------------------------------|

E|------------------3-2-0------2-3---------------------------|
B|--0--------3-----------------------0-----5-3---------------|
G|----0--------4---------------------------------2----5-4-0--|
D|-----------------------------------------------------------|
A|-----------------------------------------------------------|
E|-----------------------------------------------------------|


ESTE ES UNO DE LOS HIMNOS MAS BELLOS DEL MUNDO POR TODAS LAS
COSAS DEL MUNDO, PERO SOBRE TODO PORQUE SOY COLOMBIANO Y
QUIERO SACAR ADELANTE A MI PATRIA, Q VIDA COLOMBIA HIJUEPUTAS





Calificar esta versión:
Aviso: Este fichero es trabajo propio de su transcriptor y representa su interpretación personal de la canción. El material contenido en esta página es para exclusivo uso privado, por lo que se prohibe su reproducción o retransmisión, así como su uso para fines comerciales.
Más versiones de Himno Nacional De Colombia, Himnos Nacionales
Himno Nacional De Colombia
acordes
Himno Nacional De Colombia
tablatura
Descubre más canciones de Himnos Nacionales