Himno De España, Himnos Nacionales (tablatura)

Autor: Anónimo | 24905 visualizaciones



------0---3-1-0-----------------0--3-1-0-----3--3-0-3-1---1-0---0-----
--1-----1-------3-1-1-0-----1-3----------3-1------------3-----1---3---
----0-------------------2-0-------------------------------------------
----------------------------------------------------------------------
----------------------------------------------------------------------
----------------------------------------------------------------------

-----------0--1-3-1-0-----|
-----0-1-3------------3-1-|
-0-2----------------------|
--------------------------|          NEREA LAPAUSA
--------------------------|
--------------------------|





Calificar esta versión:
Aviso: Este fichero es trabajo propio de su transcriptor y representa su interpretación personal de la canción. El material contenido en esta página es para exclusivo uso privado, por lo que se prohibe su reproducción o retransmisión, así como su uso para fines comerciales.
Más versiones de Himno De España, Himnos Nacionales
Himno De España
tablatura
Himno De España
teclado
Descubre más canciones de Himnos Nacionales