Himno De Argentina, Himno Nacionales (tablatura) (ver 2)

Autor: struf | 30302 visualizaciones

PARTE CANTADA

1|-------------------0-----------------------------------------------
2|------0---1---1.------3___1--0-------------------------------------
3|-0-2---------------------------2--0------------0------------2---0--
4|-------------------------------------2-----2.------3----3.---------
5|---------------------------------------3---------------------------
6|-------------------------------------------------------------------
   O_ID MOR_TA__LES EL GRI____TO SA_GRA__DO:¡LI_BER_TAD! ¡LI_BER_TAD!


1|--------------------------------------------------------------------
2|-----0---1------------------------------------------------------1___
3|-2.------------------------------------2--2---0----0.-4---2.-2------
4|-------------------0--2---2-2-2_5--4.-------------------------------
5|--------------3--3--------------------------------------------------
6|--------------------------------------------------------------------
  ¡LI_BER_TAD! ¡O_ID EL RUI_DO DE RO_TAS CA_DE_NAS! VED EN TRO_NO-A LA


1|---------------------|
2|---------------------|
3|-------------2----0--|
4|-4----4--------------|
5|---------------------|
6|---------------------|
   NO__BLE-I__GUAL_DAD.

1||---------------------------------------------------------------
2||-----0---1---------------------------------------------------1-
3||-0-2---------0---0---1---0--------------------------0.--0------
4||----------------------------3.----1----1--------0--------------
5||---------------------------------------------------------------
6||---------------------------------------------------------------
    YA  SU TRO__NO DIG__NI__ __SI__MO-A__BRIE__ __RON LAS PRO__VIN


1|----------------------------------------------------------------
2|1-3.--3-4-----------------0--1--1.---1---3---3-3--4-------1-----
3|-----------------------0----------------------------------------
4|-----------4._____--5-------------------------------------------
5|----------------------------------------------------------------
6|----------------------------------------------------------------
  _CIAS U_NI_DAS DEL SUD Y LOS LI_BRES DEL MUN___DO RES_PON_DEN:


1|--------------------------------------------------------------------
2|----------1--1.--1--3--3-----4.-1------1---4.---4-3-3---1----3.-1-0-
3|-0.--0--------------------------------------------------------------
4|--------------------------------------------------------------------
5|--------------------------------------------------------------------
6|--------------------------------------------------------------------
  ¡AL GRAN PUE_BLO-AR_GENTI_NO SA_LUD!_ ¡AL GRAN PUE_BLO-ARGEN_TI__NO


1|-----------------------------------------------
2|-1-----------0---1--1----0---------------------
3|----0----0_2-----------------2_0--------0------
4|---------------------------------3---2-------3-
5|-----------------------------------------------
6|-----------------------------------------------
   SA_LUD! Y   LOS LI_BRES DEL MUN_DO RES_PON_DEN:

1|---------------------------------
2|------------_1-------------------
3|-----2----0---------0---0__------
4|--3-------------2----------3--2--
5|---------------------------------
6|---------------------------------
   ¡AL GRAN PUE__BLO-ARGENTI____NO

1|------------------------------------------------
2|-------------0--1--1----0-----------------------
3|---------0-2----------------2_0--------0--------
4|-0---2--------------------------3.-2--------3---
5|------------------------------------------------
6|------------------------------------------------
   SA_LUD! Y  LOS LI_BRES DEL MUN_DO RES_PON_DEN:

1|------------------0.--------
2|-----------__1-1------3--1--
3|-----2----0-----------------
4|-3--------------------------
5|----------------------------
6|----------------------------
  ¡AL GRAN PUE_BLO-ARGENTI_NO

1|---------|F|--
2|-0___1---|A|--
3|---------|L|--
4|---------|T|--
5|---------|A|--
6|---------|1|--
   SA__LUD!

1|-----------------------------------------------------------------
2|---------1----------------1----1-----------1-----------------1---
3|-0.--0--------0-------0-------------0.-0--------0--------0-------
4|------------------2---------------------------------2------------
5|-----------------------------------------------------------------
6|-----------------------------------------------------------------
  Sean e__ter__nos los lau__re__les  que su__pi__mos con__se__guir:

1|-------------0---------------------------
2|----------1------3---1----0--------------
3|------------------------------2-----0----
4|-----------------------------------------
5|-----------------------------------------
6|-----------------------------------------
   (LENTO) Que su__pi__mos con__se__guir:

1|-----------------------------------------
2|-1.--1---0-------------------------------
3|---------------2--0----------------------
4|----------------------3---2---2----------
5|-----------------------------------------
6|-----------------------------------------
   co__ro__na___dos de glo__ri__a

1|------------------------------------------||
2|------------------------------------------||
3|---------0----------------------------2_0-||
4|-2------------------3--------4------------||
5|------------------------------------------||
6|------------------------------------------||
   vi__ __ __ __ __ __va__ __ __ __ __ __mos

1|--------------------------------------
2|--------0---1----1.--1---0----0.------
3|--0--2--------------------------------
4|--------------------------------------
5|--------------------------------------
6|--------------------------------------
    o_____ju__re__mos con glo__ria

1|--------1.1--0--------------------------1.-1--0--------------------
2|-0--1----------3--3---0---0.--0--0--1------------3--3-0--0--0--0---
3|-------------------------------------------------------------------
4|-------------------------------------------------------------------
5|-------------------------------------------------------------------
6|-------------------------------------------------------------------
   mo_rir o_ju_re__mos con glo_ria mo_rir o__ju_re_mos con glo__ria


1|---------------------------------------
2|-0---1---(5)-(5)-(5)-------------------
3|-----------(5)-(5)-(5)(5)-(0)-(5)(5)---
4|----------2---2---2------------5--5----
5|------------3---3---3--3-------3--3----
6|---------------------------------------
   mo__rir._______


1. --> Utilizo el punto para no repetir
tanto el mismo punteo, en esa parte.

Comentarios del colaborador: Me salio todo menos la intro eso se las debo si la termino de sacar se las paso completa con el tema y todo

Calificar esta versión:
Aviso: Este fichero es trabajo propio de su transcriptor y representa su interpretación personal de la canción. El material contenido en esta página es para exclusivo uso privado, por lo que se prohibe su reproducción o retransmisión, así como su uso para fines comerciales.
Más versiones de Himno De Argentina, Himno Nacionales
Himno De Argentina
tablatura
Himno De Argentina (ver 2)
tablatura
Himno De Argentina
armonica
Descubre más canciones de Himno Nacionales