Correré, Hillsong United (bajo)

Autor: Anónimo | 34389 visualizaciones



*BATERÍA = 4 COMPASES
*BAJO = A PARTIR DEL 5to COMPÁS


::INTRO::
     D#        B         F#        G#
E||------------7-7-7-|----------------------|
A||--6-6-6-6-6-------|-6/9-9-9-9-9-11-11-11-|  (4 VECES)
D||------------------|----------------------|
G||------------------|----------------------|



::ESTROFA 1::
     D#        B        F#        G#
E||------------7-----|--2----------4--------|
A||--6---------------|----------------------| (2 VECES)
D||------------------|----------------------|
G||------------------|----------------------|

     B                 D#      C#
E||------------------|----------------------|
A||--2-2-2-2-2-2-2-2-|-6-6-6-6-4-4-4-4------|
D||------------------|----------------------|
G||------------------|----------------------|

     B                 B
E||------------------|----------------------|
A||--2-2-2-2-2-2-2-2-|-2-2-2-2-2-2-4-4------|
D||------------------|----------------------|
G||------------------|----------------------|



::ESTROFA 2::
     D#        B         F#        G#
E||------------7-7-7-|----------------------|
A||--6-6-6-6-6-------|-6/9-9-9-9-9-11-11-11-| (2 VECES)
D||------------------|----------------------|
G||------------------|----------------------|

     B                 D#      C#
E||--7-7-7-7-7-7-7-7-|----------------------|
A||------------------|-6-6-6-6-4-4-4-4------|
D||------------------|----------------------|
G||------------------|----------------------|

     B                 B
E||--7-7-7-7-7-7-7-7-|-------------------------|
A||------------------|-14-14-14-14-14-14-14-14-|
D||------------------|-------------------------|
G||------------------|-------------------------|


::CORO 1::

     F#               C#               D#               B
E||--2-2-2-2-2-2-2-2-|----------------|----------------|---------------
A||------------------|4-4-4-4-4-4-4-4-|6-6-6-6-6-6-6-6-|2-2-2-2-2-2-2-2
D||------------------|----------------|----------------|---------------
G||------------------|----------------|----------------|---------------

     F#               G#               D#               B
E||--2-2-2-2-2-2-2-2-|4-4-4-4-4-4-4-4-|----------------|-------------------
A||------------------|----------------|6-6-6-6-6-6-6-6-|7-7-7-7-14-14-14-14
D||------------------|----------------|----------------|-------------------
G||------------------|----------------|----------------|-------------------


::INTRO::  2 veces

::ESTROFA 2::

::CORO 1::


::CORO 2::

     F#               C#               D#               B
E||--2-2-2-2-2-2-2-2-|----------------|----------------|----------------
A||------------------|4-4-4-4-4-4-4-4-|6-6-6-6-6-6-6-6-|2-2-2-2-2-2-2-2-
D||------------------|----------------|----------------|----------------
G||------------------|----------------|----------------|----------------

     D#               C#               A#               B
E||------------------|----------------|----------------|-------------------
A||--6-6-6-6-6-6-6-6-|4-4-4-4-4-4-4-4-|6-6-6-6-6-6-6-6-|7-7-7-7-14-14-14-14
D||------------------|----------------|----------------|-------------------
G||------------------|----------------|----------------|-------------------


::INTRO:: 4 veces

4 COMPASES SILENCIO O TOCAR NOTAS DEL INTRO


::INTERMEDIO::
     D#                       B
E||-------------------------|----------------------------
A||-------------------------|-14-------------------------
D||--13-----------------16--|--------------------16------
G||-------------------------|----------------------------


::CORO 1:: (AGUDO)

::CORO 2::

::INTRO:: (4 veces)

Dios los bendiga grandemente, cualquier consulta por favor al mail.
Estoy colocando las notas de la canción más no los acordes, en el bajo
usamos notas.

Después de mucho tiempo vuelvo a subir una tablatura. Saludos a la
iglesia "DIVINO REDENTOR" y a mi Meloncito

Lucho_Beto





Calificar esta versión:
Aviso: Este fichero es trabajo propio de su transcriptor y representa su interpretación personal de la canción. El material contenido en esta página es para exclusivo uso privado, por lo que se prohibe su reproducción o retransmisión, así como su uso para fines comerciales.
Más versiones de Correré, Hillsong United
Correré
acordes
Correré
tablatura
Correré (ver 2)
tablatura
Correré
bajo
Descubre más canciones de Hillsong United